Oops, an error
Loading. Please wait.

All The Way Live Bass Tab

2,388 views 6 this week
2 commentsread comments
1 2 3 4 5
x 3
add to favorites
launch autoscroll
font size
0
reset
guitar tuner
Autoscroll
slow
fast
+/-
esc
set tempo
stop
Help us to improve Ultimate-Guitar.com Take our survey!
×
standered tuning: EADG
here you go this is how it shud be

VERSES 

G-----------------------------------------|
D-----------------------------------------|
A--5h7p5-3h5------------5h7p5-3h5-/9p7h9--|
E-0-----------0h5-0h3--0------------------|

G-----------------------------------------|
D---------------------------------/12-----|
A--5h7p5-3h5------------5h7p5-3h5---------|
E-0-----------0h5-0h3--0------------------|

POST VERSE/ PRE CHORUS
   play 3x  then       
G---------|---------|
D---------|---------|
A-5-5-----|-5-5-5h7-|
E-----5h7-|---------|

CHORUS

G---------------------------|
D---------------------------|
A-----7-----7-----7---------|
E-0-0---0-O---0-0---3-3-5h6-|

BRIDGE 1

G-------------------|
D-------------------|
A---------------12*-|
E-00--00--00--00----|

BRIDGE 2

G----------------------------------------|
D-5-------5--------5-----5---7-5---------| repeat exept for 75-75-75
A---2-/5*---2-/5/7---2-5*--2-----7-5-----|
E------------------------------------7-5-|

BRIDGE 3

G---------------|
D---------------|
A-------------0-|
E-00-00-00-00---|

thats preety much it the ending chorus is slower and theres a lot of repeats so you can
figure that out plz rate cuz this is only my second tab i want to see how good or bad i
am 
Suggest correction
Give kudos to tab author, rate the tab!
1 2 3 4 5
comments
print report bad tab
2 comments total.
0 reply
SK8nBASS 1,851 Aug 25, 2009 08:59 AM

Great tab! Such an awesome song! Rock on TFK!!!

0 reply
SK8nBASS 1,851 Dec 25, 2009 12:17 PM

Actually... don't ya think the verses would be:
G-----------------------------------------|
D-----------------------------------------|
A--5h7p5-4h5------------5h7p5-4h5-/9p7h9--|
E-0-----------0h5-0h3--0------------------|

G-----------------------------------------|
D---------------------------------/12-----|
A--5h7p5-4h5------------5h7p5-4h5---------|
E-0-----------0h5-0h3--0------------------|

... with a 4 instead of a three on the A?

guest
You may want to rate the tab now too:
select rating
Wanna post a correction for this tab? Suggest correction