Oops, an error
Loading. Please wait.

Already Home Tab

2,068 views 3 this week
2 commentsread comments
1 2 3 4 5
please rate
add to favorites
launch autoscroll
font size
0
reset
how to read this tab
guitar tuner
Tab Pro tools
  • play this tab
  • loop segment
  • change instrument
  • show fretboard
  • metronome
×
Best way to learn
"Already Home"
Autoscroll
slow
fast
+/-
esc
set tempo
stop
Tuning
C# G# C# F# A# D#
Tuning: Drop C# (C#G#C#F#A#D#)

slide up /
slide down \
palm mute .
rest R

Verse 1
(1:04)
D#|-----------|
A#|-----------|
F#|-11-9-7-4--|
C#|-----------|
G#|-----------|
C#|-----------|

(1:12)
|-------------------------------------------|
|-------------------------------------------|
|-11-9-7-4---3--/7--9/11--------------------|
|-------------------------------------------|
|-------------------------------------------|
|-------------------------------------------|

Chorus
(1:21)
|-------------------------------------------------------------------|
|-------------------------------------------------------------------|
|-------------------------------------------------------------------|
|--0-0-0-0-0-0-0-0-7-7-7-7-7-7-7-7-9-9-9-9-7-7-7-7-5-5-5-5-5-5-5-5--|X2
|--0-0-0-0-0-0-0-0-7-7-7-7-7-7-7-7-9-9-9-9-7-7-7-7-5-5-5-5-5-5-5-5--|
|--0-0-0-0-0-0-0-0-7-7-7-7-7-7-7-7-9-9-9-9-7-7-7-7-5-5-5-5-5-5-5-5--|

At the end of the first chorus theres a slide out of the 7th fret on the 4th string and 
then and acoustic guitar plays an F# chord

Verse 2
(2:02)
|-------------------------------------------|
|-------------------------------------------|
|-11-9-7-4---3--/7----------6-/7---9/11-----|
|-----------------------554-----------------|
|-------------------------------------------|
|-------------------------------------------|
                        ...

(2:18)
|-------------------------------------------|
|-------------------------------------------|
|-11-9-7-4---3--/7--9/11-11-9\7-7-----------|
|-------------------------------------------|
|-------------------------------------------|
|-------------------------------------------|

(Chorus 1 and 1/2 times)

Bridge (Key change up one step)
(3:14)
|-------------------------------------------|
|-------------------------------------------|
|-------------------------------------------|
|-2-2-2-2-9-9-9-9-11-11-11-11-11-R-9-9-9-9--|
|-2-2-2-2-9-9-9-9-11-11-11-11-11-R-9-9-9-9--|
|-2-2-2-2-9-9-9-9-11-11-11-11-11-R-9-9-9-9--|

|-----------------------------------|
|-----------------------------------|
|-----------------------------------|
|-2-2-2-2-9-9-9-9-7-7-7-7-7-7-7-7---|
|-2-2-2-2-9-9-9-9-7-7-7-7-7-7-7-7---|
|-2-2-2-2-9-9-9-9-7-7-7-7-7-7-7-7---|

|-------------------------------------------|
|-------------------------------------------|
|-------------------------------------------|
|-2-2-2-2-9-9-9-9-11-11-11-11-11-R-9-9-9-9--|
|-2-2-2-2-9-9-9-9-11-11-11-11-11-R-9-9-9-9--|
|-2-2-2-2-9-9-9-9-11-11-11-11-11-R-9-9-9-9--|

|-----------------------------------|
|-----------------------------------|
|-----------------------------------|
|-2-2-2-2-9-9-9-9-7-7-7-7-7-7-7-7---|
|-2-2-2-2-9-9-9-9-7-7-7-7-7-7-7-7---|
|-2-2-2-2-9-9-9-9-7-7-7-7-7-7-7-7---|


Out Chorus (Key change one more step up
(3:45)

|---------------------------------------------------------------------|
|---------------------------------------------------------------------|
|---------------------------------------------------------------------|
|-4-4-4-4-4-4-4-4-11-11-11-11-13-13-13-13-11-11-11-11-9-9-9-9-9-9-9-9-|
|-4-4-4-4-4-4-4-4-11-11-11-11-13-13-13-13-11-11-11-11-9-9-9-9-9-9-9-9-|
|-4-4-4-4-4-4-4-4-11-11-11-11-13-13-13-13-11-11-11-11-9-9-9-9-9-9-9-9-|

|------------------|
|------------------|
|------------------|
|-4-4-4-4-4-4-4-4--|
|-4-4-4-4-4-4-4-4--|
|-4-4-4-4-4-4-4-4--|

 Then an acoustic guitar plays:
        C
And I'm calling out Your name
    Dm           C              A#
And I wont run away 'cause I'm already home
comments
We did not receive enough feedback on this tab! Please rate:
print report bad tab
1 2 3 4 5
2 comments total.
0 reply
synyster595 wrote on February 26 2012, 11:32 am

1 small correction. Second verse
After 55/4 you slide 4/6 then 6/7 -9/11

0 reply
synyster595 wrote on February 26 2012, 11:35 am

4/6 on F# string my bad. But other than that AWESOME TAB!!

I want to post or [tab]
guest
You may want to rate the tab now too:
select rating
Please do not post tabs as comments. Select "correction" instead!