Oops, an error
Loading. Please wait.

Anyone Else Tab

389 views 3 this week
no commentswrite comment
1 2 3 4 5
excellent!
x 1
add to favorites
launch autoscroll
font size
0
reset
how to read this tab
guitar tuner
Tab Pro tools
  • play this tab
  • loop segment
  • change instrument
  • show fretboard
  • metronome
Autoscroll
slow
fast
+/-
esc
set tempo
stop
Contributor
Difficulty
Tuning
novice
D A D G B E
-------------------------------------------------------------------------------
                             Anyone Else - Thousand Foot Krutch
-------------------------------------------------------------------------------
Tabbed by: StevenBeaven90
E-mail: stevenkotelnikov@Gmail.com
Feel free to email me if you have any questions about this tab or any other of my tabs.
You can watch this tab in action at https://www.youtube.com/watch?v=Ifu1w3PVJV4&feature=youtu.be
I originally only tabbed this song for one guitar, but on closer inspection I noticed a
second guitar in the song (this is why there is a main guitar and a background guitar).

Tuning: Drop D
(LR) - Let Ring
Guitar 1 - Main Guitar
Guitar 2 - Background Guitar
You might notice that Guitar 1 and 2 share some of the same tabs, and that's because at
first I only tabbed the louder guitar. When I played the song some more, I noticed 
that some of the riffs kept repeating themselves more quietly. I simply wanted you
guys to be aware of that.

[Intro](0:00-0:05)
Guitar 1
e|---------------------------------------------------------------------------|
B|---------------------------------------------------------------------------|
G|----4-----7-----9-----7-----4-----7-----2-----0----------------------------|
d|---------------------------------------------------------------------------|
A|-2-----5-----7-----------2-----5-------------------------------------------|
D|-2-----5-----7-----------2-----5-------------------------------------------|

[Verse I](0:05-0:29)(Same for Guitar 1 as it is in intro, but play 
it through four times)
Guitar 2 (x2)(Listen to the song for the strum pattern)(Comes in at about 0:17)
e|---------------------------------------------------------------------------|
B|---------------------------------------------------------------------------|
G|---------------------------------------------------------------------------|
d|-2--------5----------------------------------------------------------------|
A|-2--------5----------------------------------------------------------------|
D|-2--------5----------------------------------------------------------------|

[Pre-chorus I](0:29-0:35)
Guitar 1
e|---------------------------------------------------------------------------|
B|---------------------------------------------------------------------------|
G|---------------------------------------------------------------------------|
d|-7-------10----------------------------------------------------------------|
A|-7-(x8)--10-(x4)-----------------------------------------------------------|
D|-7-------10----------------------------------------------------------------|

Guitar 2
e|---------------------------------------------------------------------------|
B|---------------------------------------------------------------------------|
G|----4-----7-----9-----7-----4-----7----------------------------------------|
d|---------------------------------------------------------------------------|
A|-2-----5-----7-----------2-----5-------------------------------------------|
D|-2-----5-----7-----------2-----5-------------------------------------------|

[Chorus I](0:35-0:59)
Guitar 1
e|---------------------------------------------------------------------------|
B|---------------------------------------------------------------------------|
G|---------------------------------------------------------------------------|
d|-5--------0--------10--------0--------2--------0--------10--------0--------|
A|-5-(x16)--0-(x16)--10-(x16)--0-(x16)--2-(x16)--0-(x16)--10-(x16)--0-(LR)---|
D|-5--------0--------10--------0--------2--------0--------10--------0--------|

[Turnaround riff](0:59-1:04)(Same for Guitar 1 as it is in Intro)

[Verse II](1:04-1:22)(Same for guitar 2 as it is in Verse I, but only play through 
three times for Guitar 1)

[Pre-chorus II](1:22-1:30)(Same for both guitars as they are in Pre-chorus I)

[Chorus II](1:30-1:53)
Guitar 1
e|---------------------------------------------------------------------------|
B|---------------------------------------------------------------------------|
G|---------------------------------------------------------------------------|
d|-5--------0--------10--------0--------2--------0--------10-------0---------|
A|-5-(x16)--0-(x16)--10-(x16)--0-(x16)--2-(x16)--0-(x16)--10-(LR)--0-(x8)----|
D|-5--------0--------10--------0--------2--------0--------10-------0---------|

[Bridge](1:53-2:18)(On the second play-through, do not strum the last four muted 
chords)
(Listen to the song for the strum pattern)
Guitar 1
e|---------------------------------------------------------------------------|
B|---------------------------------------------------------------------------|
G|---------------------------------------------------------------------------|
d|-2----5----4----7----2----7----5----4----x-x-x-x---------------------------|
A|-2----5----5----7----2----7----5----5----x-x-x-x---------------------------|
D|-2----5----4----7----2----7----5----4----x-x-x-x---------------------------|

e|---------------------------------------------------------------------------|
B|---------------------------------------------------------------------------|
G|---------------------------------------------------------------------------|
d|-2----5----4----7----2----7----5----4----x-x-------------------------------|
A|-2----5----5----7----2----7----5----5----x-x-------------------------------|
D|-2----5----4----7----2----7----5----4----x-x-------------------------------|

[Pre-chorus III](2:18-2:30)
Guitar 1
e|---------------------------------------------------------------------------|
B|---------------------------------------------------------------------------|
G|---------------------------------------------------------------------------|
d|-7-------10-------7-------10-----------------------------------------------|
A|-7-(x8)--10-(x8)--7-(x8)--10-(x4)------------------------------------------|
D|-7-------10-------7-------10-----------------------------------------------|

[Chorus III](2:30-2:53)
Guitar 1
e|---------------------------------------------------------------------------|
B|---------------------------------------------------------------------------|
G|---------------------------------------------------------------------------|
d|-5--------0--------10--------0--------2--------0--------10--------0--------|
A|-5-(x16)--0-(x16)--10-(x16)--0-(x16)--2-(x16)--0-(x16)--10-(x16)--0-(x4)---|
D|-5--------0--------10--------0--------2--------0--------10--------0--------|

[Chorus IV](2:53-3:35)
Guitar 1
e|---------------------------------------------------------------------------|
B|---------------------------------------------------------------------------|
G|---------------------------------------------------------------------------|
d|-5--------0--------2--------10--------5--------0--------2--------10--------|
A|-5-(x16)--0-(x16)--2-(x12)--10-(x18)--5-(x16)--0-(x16)--2-(x12)--10-(x18)--|
D|-5--------0--------2--------10--------5--------0--------2--------10--------|

e|---------------------------------------------------------------------------|
B|---------------------------------------------------------------------------|
G|---------------------------------------------------------------------------|
d|-10-------0--------5-------------------------------------------------------|
A|-10-(LR)--0-(x16)--5-(LR)--------------------------------------------------|
D|-10-------0--------5-------------------------------------------------------|

************************************

| /   slide up
| \   slide down
| x   Mute note

************************************
comments
We did not receive enough feedback on this tab! Please rate:
print report bad tab
1 2 3 4 5
I want to post or [tab]
guest
You may want to rate the tab now too:
select rating
Please do not post tabs as comments. Select "correction" instead!