Oops, an error
Loading. Please wait.

Art Of Breaking Bass Tab

3,760 views 6 this week
4 commentsread comments
1 2 3 4 5
excellent!
x 6
add to favorites
launch autoscroll
font size
0
reset
guitar tuner
Autoscroll
slow
fast
+/-
esc
set tempo
stop
Help us to improve Ultimate-Guitar.com Take our survey!
×
Difficulty
intermediate
//****************************************************
//Thousand Foot Krutch - The Art of Breaking Bass Tab*
//Tabbed by Austin Thresher                          *
//Pogo708@hotmail.com                                *
//****************************************************

This should be pretty accurate, and the timing isn't tough to
figure out. This is my first tab, so e-mail me with any issues
and I'll fix 'em.


Guitar Intro, then first verse:


        "Everytime I call you on the phone..."
G-------------------------------------------------------------|
D----------------------------------------------------4-----4--|
A---------------------------------------------12/2-4---2-4----|
E-44-44-44-------22-22-22-------00-00-00----------------------| x2

         "I'll pick you up..."
G-------------------------------------------------------------|
D-----------------------------4----------------------4-----4--|
A----------2-4------------4-2--------------------2-4---2-4----|
E-44-44-44-------22-22-22-------00-00-00----------------------| x2


Chorus:

          "When I feel numb..."
G---------------------------------------------------------------------|
D---------------------------------------------------------------------|
A---------------------------------------------------------------------|
E-4-4444---4-4444---0-0000--2-2222---4-4444---4-4444---2-2222--0-0000-|

G-------------------------------------------------------------|
D-------------------------------------------------------------|
A-------------------------------------------------------------|
E-4-4444---4-4444---0-0000--2-2222---4-4444---4-4444---0-0--2-|

Second verse, same as the first:

          "I think I might just loose my mind..."
G-------------------------------------------------------------|
D----------------------------------------------------4-----4--|
A---------------------------------------------12/2-4---2-4----|
E-44-44-44-------22-22-22-------00-00-00----------------------| x2

          "I'll pick you up..."
G-------------------------------------------------------------|
D-----------------------------4----------------------4-----4--|
A----------2-4------------4-2--------------------2-4---2-4----|
E-44-44-44-------22-22-22-------00-00-00----------------------| x2


Chorus:

           "When I feel numb..."
G---------------------------------------------------------------------|
D---------------------------------------------------------------------|
A---------------------------------------------------------------------|
E-4-4444---4-4444---0-0000--2-2222---4-4444---4-4444---2-2222--0-0000-|

G-------------------------------------------------------------|
D-------------------------------------------------------------|
A-------------------------------------------------------------|
E-4-4444---4-4444---0-0000--2-2222---4-4444---4-4444---0-0--2-| (Let this note ring)


Drums for a little while, then the bass comes back in:


     "How ya gonna run away..."

G--------------------------------|
D--------------------------------|
A-44-444--44-444--77-777--66-666-|
E--------------------------------|

G-------------------------------|
D-------------------------------|
A-44-444-44-444--00-000--22-222-|
E-------------------------------| x4

G---------------------------------|
D-------------------------2-4-1-1-|
A-44-444-44-444----2-4------------|
E---------------------------------|


Last Chorus, starts off a bit diffferently:

"When I feel numb..."
G---------------------------------------------------|
D---------------------------------------------------|
A---------------------------------------------------|
E-0-0000--2-2222---4-4444---4-4444--2-2222---0-0000-|

G--------------------------------------------------------------------|
D--------------------------------------------------------------------|
A--------------------------------------------------------------------|
E-4-4444---4-4444---0-0000--2-2222---4-4444---4-4444---2-2222-0-0000-| x6
Suggest correction
comments
print report bad tab
4 comments total. Showing first comments.
0 reply
phasesevenfold 213 wrote on November 18 2007, 04:04 pm

really nice tab i like it. 5 star

it would help if you put in the song time that you play each riff but still i can
fingure that out

0 reply
daimondbass11 71 wrote on July 6 2009, 07:35 pm

i like it 5 star!
but i dont think the 4 notes at the end of the bridge is right...

0 reply
daimondbass11 71 wrote on July 6 2009, 07:39 pm

i think it shouldve been
G---------------------------------|
D---------------------------------|
A-44-444-44-444----2-4----2-4-----|
E-----------------------------4-4-|

guest
You may want to rate the tab now too:
select rating
Please do not post tabs as comments. Select "correction" instead!