Oops, an error
Loading. Please wait.

Art Of Breaking Tab

version 2
version 2

Whole song

2,754 views 6 this week
1 commentread comment
1 2 3 4 5
accurate
x 3
add to favorites
launch autoscroll
font size
0
reset
how to read this tab
guitar tuner
Autoscroll
slow
fast
+/-
esc
set tempo
stop
Help us to improve Ultimate-Guitar.com Take our survey!
×
Author
Tuning
B F# B E G# C#
This is a really good song, I did it in Drop-B tuning.

Intro
C#|--------------------|
G#|--------------------|
E |--------------------|
B |-99-99-99--99-99-99-|
F#|-99-99-99--99-99-99-|
B |-99-99-99--99-99-99-|

Verse                         
C#|-------------------------------------------|
G#|-------------------------------------------|
E |-------------------------------------------|
B |-99-99-99--77-77-77--55-55-55--------------| x3
F#|-99-99-99--77-77-77--55-55-55-----0-----0--|
B |-99-99-99--77-77-77--55-55-55-0--2--0--2---|

C#|-------------------------------------------|
G#|-------------------------------------------|
E |-------------------------------------------|
B |-99-99-99--77-77-77--55-55-55--------------| 
F#|-99-99-99--77-77-77--55-55-55-----0-5-3----|
B |-99-99-99--77-77-77--55-55-55-0--2------5--|


Chorus                     
C#|----------------------------------------|
G#|----------------------------------------|
E |----------------------------------------|
B |-99999999-5555-7777-99999999-7777-5555--|
F#|-99999999-5555-7777-99999999-7777-5555--|
B |-99999999-5555-7777-99999999-7777-5555--|

C#|--------------------------------------|
G#|--------------------------------------|
E |--------------------------------------|
B |-99999999-5555-7777-99999999-0-7-5----|
F#|-99999999-5555-7777-99999999-0-7-5----|
B |-99999999-5555-7777-99999999-0-7-5----|

C#|----------|
G#|----------|
E |----------|
B |-99-99-99-|
F#|-99-99-99-|
B |-99-99-99-|

Verse                         
C#|-------------------------------------------|
G#|-------------------------------------------|
E |-------------------------------------------|
B |-99-99-99--77-77-77--55-55-55--------------| x3
F#|-99-99-99--77-77-77--55-55-55-----0-----0--|
B |-99-99-99--77-77-77--55-55-55-0--2--0--2---|

C#|-------------------------------------------|
G#|-------------------------------------------|
E |-------------------------------------------|
B |-99-99-99--77-77-77--55-55-55--------------| 
F#|-99-99-99--77-77-77--55-55-55-----0-5-3----|
B |-99-99-99--77-77-77--55-55-55-0--2-----5---|


Chorus                     
C#|-----------------------------------------|
G#|-----------------------------------------|
E |-----------------------------------------|
B |-99999999-5555-7777-99999999-7777-0-7-5--|
F#|-99999999-5555-7777-99999999-7777-0-7-5--|
B |-99999999-5555-7777-99999999-7777-0-7-5--|

                                     
C#|------------------------------------------------|
G#|------------------------------------------------|
E |------------------------------------------------|
B |-99999999-5555-7777-99999999-0-7-55-------------|
F#|-99999999-5555-7777-99999999-0-7-55-------------|
B |-99999999-5555-7777-99999999-0-7-55(let ring)---|

Interlude
C#|---------------|
G#|---------------|
E |-4-7--6-7------|
B |-4-7--6-7-9--9-|
F#|-2-5--4-5-9--9-|
B |----------9--9-|

End
C#|-------------------------------|
G#|-------------------------------|
E |-------------------------------|
B |-5555-7777-99999999-7777-5555--|
F#|-5555-7777-99999999-7777-5555--|
B |-5555-7777-99999999-7777-5555--|

C#|-----------------------------------------|
G#|-----------------------------------------|
E |--------------------------------99\1313--|
B |-99999999-5555-7777-99999999-77-77\1111--| (I'm not sure what that last note is)
F#|-99999999-5555-7777-99999999-77----------|
B |-99999999-5555-7777-99999999-77----------|

C#|----------------------------------------|
G#|----------------------------------------|
E |----------------------------------------|
B |-99999999-5555-7777-99999999-7777-5555--| x2
F#|-99999999-5555-7777-99999999-7777-5555--|
B |-99999999-5555-7777-99999999-7777-5555--|
                        
C#|---------------------|
G#|---------------------|
E |---------------------|
B |-99999999-7777-5555--| repeat till end, end note on 7th
F#|-99999999-7777-5555--|
B |-99999999-7777-5555--|
Suggest correction
What's this?
You can suggest a correction to this tab. Community and Mods will review your correction and vote to approve or reject it.
comments
We did not receive enough feedback on this tab! Please rate:
print report bad tab
1 2 3 4 5
1 comment total.
0 reply
U B the band 5,212 wrote on June 18 2006, 11:24 am

Nice tab! 5 stars-PMT

guest
You may want to rate the tab now too:
select rating
Please do not post tabs as comments. Select "correction" instead!