Oops, an error
Loading. Please wait.

Born This Way Tab

version 1
version 1

Whole song

6,217 views 24 this week
6 commentsread comments
1 2 3 4 5
x 7
add to favorites
launch autoscroll
font size
0
reset
how to read this tab
guitar tuner
×
Best way to learn
"Born This Way"
Autoscroll
slow
fast
+/-
esc
set tempo
stop
Author
Difficulty
Tuning
  follow
novice
D A D G B E
Tuning: Drop D

[Intro]
e|-----------4--2------3/-4----------------------------------------------------|
B|-------2-0------2-0--3/-4----------------------------------------------------|
G|----------------------------------------6-6-6-6-6\4---------------6-6-6-6-8-4|
D|-/6------------------------6-6-4-6-9-6--6-6-6-6-6\4--6-6-4-6-9-6--6-6-6-6-8-4|
A|-/6------------------------6-6-4-6-9-6--4-4-4-4-4\2--6-6-4-6-9-6--4-4-4-4-6-2|
D|-/6------------------------6-6-4-6-9-6---------------6-6-4-6-9-6-------------|

[Verse] 
(palm mute through the whole verse)
e|-----------------------------------------------------------------------------|
B|-----------------------------------------------------------------------------|
G|-----------------------------------------------------------------------------|
D|-----------------------------------------------------------------------------|
A|--------------4-4-4-4-4-2---------------4-4-4-4-6-2--------------------------|
D|-6-6-4-6-9-6---------------6-6-4-6-9-6---------------------------------------|

[Chorus and bridge chords] 
(these are the chords that you play through the verse, chorus, 
and bridge.)
e|---------------------------------------------------------------------------|
B|---------------------------------------------------------------------------|
G|--------------6-6-6-6-6\4---------------6-6-6-6-8-4------------------------|
D|-6-6-4-6-9-6--6-6-6-6-6\4--6-6-4-6-9-6--6-6-6-6-8-4------------------------|
A|-6-6-4-6-9-6--4-4-4-4-4\2--6-6-4-6-9-6--4-4-4-4-6-2------------------------|
D|-6-6-4-6-9-6---------------6-6-4-6-9-6-------------------------------------|


************************************

| /  Slide up
| \  Slide down

************************************
Suggest correction
comments
print report bad tab
6 comments total. Showing first comments.
+4 reply
thatguy44 10 Sep 02, 2014 07:35 PM

Tab incomplete.

+2 reply
thatguy44 10 Sep 02, 2014 07:35 PM

Tab incomplete.

+2 reply
thatguy44 10 Sep 02, 2014 07:35 PM, edited at 11:40 pm

Sorry about duplicate post

guest
You may want to rate the tab now too:
select rating
Wanna post a correction for this tab? Suggest correction