Oops, an error
Loading. Please wait.

Breathe You In Bass Tab

version 1
version 1

Whole song

Interactive

1,961 views 1 this week
no commentswrite comment
1 2 3 4 5
please rate
add to favorites
launch autoscroll
font size
0
reset
guitar tuner
Autoscroll
slow
fast
+/-
esc
set tempo
stop
Help us to improve Ultimate-Guitar.com Take our survey!
×
Author
Difficulty
Tuning
novice
D A D G B E
Sorry if it's not perfect. It's my first tab, and I'm only going by what I heard.

This song is only one string on bass. If you want to make it more challenging, go ahead. 
won't though.

Intro

G|--------------------------------------------------------------------------|
D|--------------------------------------------------------------------------|
A|--------------------------------------------------------------------------|
D|-8---8-8-8-8--8--8--3---3-3-3-3--3--3--1---1-1-1-1--1--1--5---5-5-5-5--5--|

G|--
D|--
A|--
D|-5


verse 1
(play 2x)

G|--------------------------------------------------------------------------|
D|--------------------------------------------------------------------------|
A|--------------------------------------------------------------------------|
D|-8---8-8-8-8--8--8--3---3-3-3-3--3--3--1---1-1-1-1--1--1--5---5-5-5-5--5--|

G|--
D|--
A|--
D|-5

Hook
(Play  2x)

G|-----------------------------------------|
D|-----------------------------------------|
A|-----------------------------------------|
D|-1--1--1-1-1-5--5--5-8--8--8-3--3--3-3-3-|

Chorus
(Play 2x)

G|-----------------------------------------------------|
D|-----------------------------------------------------|
A|-----------------------------------------------------|
D|-8--8-8-8-8-8-3--3-3-3-3-3-5--5-5-5-5-5-1--1-1-1-1-1-|

Verse 2

G|--------------------------------------------------------------------------|
D|--------------------------------------------------------------------------|
A|--------------------------------------------------------------------------|
D|-8---8-8-8-8--8--8--3---3-3-3-3--3--3--1---1-1-1-1--1--1--5---5-5-5-5--5--|

G|--
D|--
A|--
D|-5


Hook
(Play  2x)

G|-----------------------------------------|
D|-----------------------------------------|
A|-----------------------------------------|
D|-1--1--1-1-1-5--5--5-8--8--8-3--3--3-3-3-|

Chorus
(Play 2x)

G|-----------------------------------------------------|
D|-----------------------------------------------------|
A|-----------------------------------------------------|
D|-8--8-8-8-8-8-3--3-3-3-3-3-5--5-5-5-5-5-1--1-1-1-1-1-|

Bridge
(Play 3x)

G|-----------------------------------------------------------|
D|-----------------------------------------------------------|
A|-----------------------------------------------------------|
D|-10--10-10-10-10-10-1--1-1-1-1-1-8--8-8-8-8-8-3--3-3-3-3-3-|

Chorus
(Play 6x)

G|-----------------------------------------------------|
D|-----------------------------------------------------|
A|-----------------------------------------------------|
D|-8--8-8-8-8-8-3--3-3-3-3-3-5--5-5-5-5-5-1--1-1-1-1-1-|
Suggest correction
Give kudos to tab author, rate the tab!
1 2 3 4 5
comments
print report bad tab
guest
You may want to rate the tab now too:
select rating
Wanna post a correction for this tab? Suggest correction