Oops, an error
Loading. Please wait.

Breathe You In Tab

version 1
version 1

Whole song

Interactive

12,680 views 9 this week
1 commentread comment
1 2 3 4 5
x 6
add to favorites
launch autoscroll
font size
0
reset
how to read this tab
guitar tuner
Autoscroll
slow
fast
+/-
esc
set tempo
stop
Help us to improve Ultimate-Guitar.com Take our survey!
×
Author
Tuning
D A D G B E
Great Song!!

Thousand Foot Krutch- Breath you in

-in the intro, there is a second guitar doing a little lead in the background, i dont 
it. but im like 95% sure this is right.

Intro and Verse (do light strumming) repeat a couple times
E----------------------------------------------------------------------------|
B----------------------------------------------------------------------------|
G----------------------------------------------------------------------------|
D----10-10-10-10-10-10---10-8/7---3-3-3-3-3-3--3-1-0--1-1-1-1-1-1-1-1--------|
A---8-----8-----8---------8------3---3---3---3-------1---1---1---1-----------|
D---8-----8-----8----------------3---3---3---3-------1---1---1---1-----------|

---------------------------|
---------------------------|
---------------6/7-5-------|
--5-5-5-5-5-5-------7------|
--5-5-5-5-5-5--------------|
-5---5---5---5-------------|

Pre-Chorus
E--------------------------------------------------|
B--------------------------------------------------|
G--------------------------------------------------|
D-1~---5~---8~---3~--------1~---5~---8~---3~-------|
A-1~---5~---8~---3~--------1~---5~---8~---3~-------|
D-1~---5~---8~---3~--------1~---5~---8~---3~-------|

Chorus- repeat 2x
E------------------------------------------------|
B------------------------------------------------|
G------------------------------------------------|
D-8-88-8-88--3-33-3-33--5-55-5-55--1-11-11-1-----|
A-8-88-8-88--3-33-3-33--5-55-5-55--1-11-11-1-----|
D-8-88-8-88--3-33-3-33--5-55-5-55--1-11-11-1-----|

next verse- same

next pre-chorus- same

next chorus- same


Bridge
E-------------------------------------------------------------|
B-------------------------------------------------------------|
G-------------------------------------------------------------|
D-10-10-10-10-10--1-11-1-11--8-88-8-88--3-3-33-3~-------------|
A-10-10-10-10-10--1-11-1-11--8-88-8-88--3-3-33-3~-------------|
D-10-10-10-10-10--1-11-1-11--8-88-8-88--3-3-33-3~-------------|

For the ending they do one more chorus, then this alot of times
E----------------------------------------------------|
B----------------------------------------------------|
G----------------------------------------------------|
D-8-88-8-88--3-33-3-33--5-55-5-55--1-11-1-11---------|
A-8-88-8-88--3-33-3-33--5-55-5-55--1-11-1-11---------|
D-8-88-8-88--3-33-3-33--5-55-5-55--1-11-1-11---------|

the end- i no this tab is correct
Suggest correction
comments
print report bad tab
1 comment total.
+1 reply
syn9809 31 Mar 08, 2009 11:50 PM

great tabbing man, i just recently found this song and i tell you, i love to play it now. It sounds very close and it works out great to play nice and acoustic like. Thanks a lot.

guest
You may want to rate the tab now too:
select rating
Wanna post a correction for this tab? Suggest correction