Oops, an error
Loading. Please wait.

Breathe You In Tab

version 2
version 2

Whole song

Interactive

15,516 views 3 this week
2 commentsread comments
1 2 3 4 5
accurate
x 6
add to favorites
launch autoscroll
font size
0
reset
how to read this tab
guitar tuner
Autoscroll
slow
fast
+/-
esc
set tempo
stop
Help us to improve Ultimate-Guitar.com Take our survey!
×
Author
Difficulty
Tuning
Capo
intermediate
D A D G B E
1st fret
Artist: TFK
CD: Art of Breaking
Written By: Trevor McNevan

Hey guys, i took a little time to write out some of the electric guitar riffs
in the background of the song, the other tabs only had chords, so here goes.

Intro/Verse:

Guitar 1 (clean, capo 1):

e------------------0-------0-0----------------|
B------0--0--------0-------3-3----------------|
G--2-2-----2---1-1-1--1----2-2-1b2--2-2-6-4-2-|
D--2-2------2--2-2-2---4-2-0-0------4-4-------| repeat
A--0-0---------2-2---------0-0------4-4-------|
E--------------0-0------------------2-2-------|

Guitar 2 (light distortion, no capo)

e--6----1----13-11-6----------1-------|s5
B-------------------------------------|
G----2-3-------------7b---0-3---3-----| you can mess arround with those
D-------------------------------------| for the verses
A-------------------------------------|
E-------------------------------------|

Pre Chorus:

Guitar 3 (drop D, distortion)

e-----------------------|
B-----------------------|
G----------3------------|
D--0---1---3---3---0--1-|
A--0---1---1---3---0--1-|
D--0---1-------3---0--1-|

Chorus:

Guitar 3:

e-------------|
B-------------|
G--3----------|
D--3--3--5--1-| and repeat
A--1--3--5--1-|
D-----3--5--1-|

Guitar 2:

e--13----------13-----------13-------------------13----------13-----------|
B----11--11-11----11--11-11----11--11-11-13-15-11---11--11-11---11--11-11-|
G-------------------------------------------------------------------------|

e--13-11-11----13-11-11---13--------------------13-------------------|
B-----------11----------11---11--11-11-13-15-11---11--11-11-13-15-11-|
G--------------------------------------------------------------------|

e--13-------------------13-11-11--13-11-11---13-11-11---13-11-11----13-|
B----11--11-11-13-15-11---------11--------11---------11----------11-11-|
G----------------------------------------------------------------------|


Bridge:

Guitar 3:

e------------      ------|
B------------      ------|
G--5-----3---      -5----|
D--5--1--3--3 X2   -5--1-|
A--3--1--1--3      -3--1-| hold chord until chorus
D-----1-----3      ----1-|


well i think that just about covers the whole song, i belive it is correct,
i spent about an hour and a half working on this tab, so i really hope it
helps you out! any questions, email me at timistheman99@hotmail.com

God Bless
Tim
Suggest correction
comments
print report bad tab
2 comments total.
0 reply
promisedland24 10 wrote on May 2 2007, 02:10 pm

Good, the lead bit is spot on, thanks for tabbing

0 reply
Andy_VonSchweal 10 wrote on October 17 2009, 11:30 am

i love this song, i love this band. thank you for the tabs, dude!

guest
You may want to rate the tab now too:
select rating
Wanna post a correction for this tab? Suggest correction