Oops, an error
Loading. Please wait.

Bring Me To Life Tab

version 1
version 1

Whole song

Interactive

15,142 views 6 this week
3 commentsread comments
1 2 3 4 5
accurate
x 6
add to favorites
launch autoscroll
font size
0
reset
how to read this tab
guitar tuner
Tab Pro tools
  • play this tab
  • loop segment
  • change instrument
  • show fretboard
  • metronome
×
Best way to learn
"Bring Me To Life"
Autoscroll
slow
fast
+/-
esc
set tempo
stop
Contributor
--------------------------------------------------------------------------
                     Bring Me To Life – Thousand Foot Krutch
----------------------------------------------------------------------------
Tabbed by: Joshua Schultze
On: 4/24/2009

Tuning: Drop B – B Gb B E Ab Db

This is the new song from Thousand Foot Krutch from their cd called Welcome To
The Masquerade coming out Fall 2009!

  Intro 1

 Piano part then guitar with effect
Db|--------------------------------------------------------------------------|
Ab|--------------------------------------------------------------------------|
 E|--------------------------------------------------------------------------|
 B|--------------------------------------------------------------------------| x2
Gb|--------------------------------------------------------------------------|
 B|--0--3p0--5p0--8p0--7p0--7h8--0--3p0--5p0--10p0--8p0--5h7-----------------| 
       
    Second time don't play 8p0--5h7
           
                                                         
  Intro 2
Db|--------------------------------------------------------------------------|
Ab|--------------------------------------------------------------------------|
 E|--------------------------------------------------------------------------|
 B|--3--1--3--1----0--3p0--5p0--8p0--7p0--7h8--0--3p0--5p0-------------------|
Gb|--3--1--3--1----0--3p0--5p0--8p0--7p0--7h8--0--3p0--5p0-------------------|
 B|--3--1--3--1----0--3p0--5p0--8p0--7p0--7h8--0--3p0--5p0-------------------|

Db|----------------------------------------------------------------------------|
Ab|----------------------------------------------------------------------------|
 E|----------------------------------------------------------------------------|
 B|--10p0--8p0--5h7------x2-------0--0--0--0--0--0--0--0--0--0-----------------|
Gb|--10p0--8p0--5h7------x2-------0--0--0--0--0--0--0--0--0--0-----------------|
 B|--10p0--8p0--5h7------x2-------0--0--0--0--0--0--0--0--0--0-----------------|
                            

   Verse 1
Db|------------------------------------------------------------------------------|
Ab|------------------------------------------------------------------------------|
 E|------------------------------------------------------------------------------|
 B|-(-0------------)-----1--3--1---(0------------)-------------------------------|
Gb|-(-0-about 50x--)-----1--3--1---(0--about 20x-)-------------------------------|
 B|-(-0------------)-----1--3--1---(0------------)-------------------------------|
   

Db|-----------------------------------------------------------------------------|
Ab|-----------------------------------------------------------------------------|
 E|-----------------------------------------------------------------------------|
 B|----1--3--1-------(0-----------)------1--3--1-------0------------------------|
Gb|----1--3--1-------(0-about 20x-)------1--3--1-------0------------------------|
 B|----1--3--1-------(0-----------)------1--3--1-------0------------------------|
                             

     Chorus

Db|--------------------------------------------------------------------------|
Ab|--------------------------------------------------------------------------|
 E|--------------------------------------------------------------------------|
 B|--3-----------------0----------------5----------------0-------------------|  x2
Gb|--3-----------------0----------------5----------------0-------------------|
 B|--3-----------------0----------------5----------------0-------------------|   


   Post Chorus

Db|--------------------------------------------------------------------------|
Ab|--------------------------------------------------------------------------|
 E|--------------------------------------------------------------------------|
 B|--1--3--1--0--3p0--5p0--8p0--7p0--7h8--0--3p0--5p0------------------------|
Gb|--1--3--1--0--3p0--5p0--8p0--7p0--7h8--0--3p0--5p0------------------------|
 B|--1--3--1--0--3p0--5p0--8p0--7p0--7h8--0--3p0--5p0------------------------|


Db|--------------------------------------------------------------------------|
Ab|--------------------------------------------------------------------------|
 E|--------------------------------------------------------------------------|
 B|--10p0--8p0--5h7----0--3p0--5p0--8p0--7p0--7h8----------------------------|
Gb|--10p0--8p0--5h7----0--3p0--5p0--8p0--7p0--7h8----------------------------|
 B|--10p0--8p0--5h7----0--3p0--5p0--8p0--7p0--7h8----------------------------|


Db|--------------------------------------------------------------------------|
Ab|--------------------------------------------------------------------------|
 E|--------------------------------------------------------------------------|
 B|--------------------------------------------------------------------------|
Gb|--------------------------------------------------------------------------|
 B|--0--3p0--5p0--10p0--8p0--5h7---------------------------------------------|

  Verse 2

 Short piano intro then guitar

Db|-----------------------------------------------------------------------------|
Ab|-----------------------------------------------------------------------------|
 E|-----------------------------------------------------------------------------|
 B|--3--1--3--1----(--0-----------)--1--3--1--(--0-----------)------------------|
Gb|--3--1--3--1----(--0--about 20x)--1--3--1--(--0-about20x--)------------------|
 B|--3--1--3--1----(--0-----------)--1--3--1--(--0-----------)------------------|
       

Db|-------------------------------------------------------------------------|
Ab|-------------------------------------------------------------------------|
 E|-------------------------------------------------------------------------|
 B|--1--3--1---(--0-----------)---------------------------------------------|
Gb|--1--3--1---(--0--about 30x)---------------------------------------------|
 B|--1--3--1---(--0-----------)---------------------------------------------| 

   Chorus    

Db|-------------------------------------------------------------------------|
Ab|-------------------------------------------------------------------------|
 E|-------------------------------------------------------------------------|
 B|--3-----------------0----------------5----------------0------------------|
Gb|--3-----------------0----------------5----------------0------------------|
 B|--3-----------------0----------------5----------------0------------------|  2x


Bridge

Db|-------------------------------------------------------------------------|
Ab|-------------------------------------------------------------------------|
 E|-------------------------------------------------------------------------|
 B|--8--0--3--5--1----8--0--3--5--1-----------------------------------------|
Gb|--8--0--3--5--1----8--0--3--5--1-----------------------------------------|
 B|--8--0--3--5--1----8--0--3--5--1-----------------------------------------|

Db|-------------------------------------------------------------------------|
Ab|-------------------------------------------------------------------------|
 E|-------------------------------------------------------------------------|
 B|-------------------------------------------------------------------------| x2
Gb|-------------------------------------------------------------------------|
 B|--0--3p0--5p0--8p0--7p0--7h8--0--3p0--5p0--10p0--8p0--5h7----------------| 
        
      Second time don't play 8p0--5h7
                                                                    
  
Db|-------------------------------------------------------------------------|
Ab|-------------------------------------------------------------------------|
 E|-------------------------------------------------------------------------|
 B|--3--1--3--1----0--3p0--5p0--8p0--7p0--7h8--0--3p0--5p0------------------|
Gb|--3--1--3--1----0--3p0--5p0--8p0--7p0--7h8--0--3p0--5p0------------------|
 B|--3--1--3--1----0--3p0--5p0--8p0--7p0--7h8--0--3p0--5p0------------------|

Db|-------------------------------------------------------------------------|
Ab|-------------------------------------------------------------------------|
 E|-------------------------------------------------------------------------|
 B|--10p0--8p0--5h7---------------------------------------------------------|
Gb|--10p0--8p0--5h7---------------------------------------------------------|
 B|--10p0--8p0--5h7---------------------------------------------------------|

       Chorus
Db|-------------------------------------------------------------------------|
Ab|-------------------------------------------------------------------------|
 E|-------------------------------------------------------------------------|
 B|--3-----------------0----------------5----------------0------------------|
Gb|--3-----------------0----------------5----------------0------------------|
 B|--3-----------------0----------------5----------------0------------------|   2x
 
     Outro

Db|---------------------------------------------------------------------------|
Ab|---------------------------------------------------------------------------|
 E|---------------------------------------------------------------------------|
 B|--(--0-----------------)---------------------------------------------------|
Gb|--(--0---about 15x-----)---------------------------------------------------|
 B|--(--0-----------------)---------------------------------------------------|


   
| h  hammer-on
| p  pull-off
=========================================================================
comments
print report bad tab
3 comments total.
+2 reply
guitarguy229 wrote on April 30 2009, 01:12 pm

holy crap!! i u already tabed to!! sick man awsome job

0 reply
musician4God15 wrote on May 8 2009, 01:19 pm

Are you the guy who posted the youtube video of the song?

0 reply
musician4God15 wrote on May 8 2009, 01:19 pm

Oh Sorry and Thanks! : )

I want to post or [tab]
guest
You may want to rate the tab now too:
select rating
Please do not post tabs as comments. Select "correction" instead!