Oops, an error
Loading. Please wait.

Broken Wing Bass Tab

version 1
version 1

Whole song

1,574 views 1 this week
no commentswrite comment
1 2 3 4 5
x 4
add to favorites
launch autoscroll
font size
0
reset
guitar tuner
Autoscroll
slow
fast
+/-
esc
set tempo
stop
Help us to improve Ultimate-Guitar.com Take our survey!
×
Author
Tuning
D A D G B E
-------------------------------------------------------------------------------
		   Broken Wing - Thousand Foot Krutch
-------------------------------------------------------------------------------

Tuning: Drop D

Intro
G|---------------------------------------------------------------------------|
D|---------------------------------------------------------------------------|
A|-----------------------------------------------------------------55555555--|
D|--77777777-33333333-55555555-00000000-77777777-33333333-55555555-----------|

Verse
G|---------------------------------------------------------|
D|---------------------------------------------------------| x2
A|---------------------------------------------------------|
D|--7777--7777--7777--7775~557-3333--3333--3333--3335~553--|

Pre-Chorus
G|-----------------------------|
D|-----------------------------| x2
A|-----------------------------|
D|--757---333---555---0-0-0-0--|

Chorus
G|-------------------------------|
D|-------------------------------| x2
A|------------5^-----------------|
D|--7-7---3-3-----5-5---0-0-0-0--|

G|--------------------------------------------------------------|
D|--------------------------------------------------------------|
A|--------------------------------------------------------------|
D|--7-7-7-7-3-3-3-3-5-5-5-5-0-0-0-0-7-7-7-7-3-3-3-3-5-5-5-5-0~--|

Verse
G|---------------------------------------------------------|
D|---------------------------------------------------------| x2
A|---------------------------------------------------------|
D|--7777--7777--7777--7775~557-3333--3333--3333--3335~553--|

Pre-Chorus
G|-----------------------------|
D|-----------------------------| x2
A|-----------------------------|
D|--757---333---555---0-0-0-0--|

Chorus
G|-------------------------------|
D|-------------------------------| x2
A|------------5^-----------------|
D|--7-7---3-3-----5-5---0-0-0-0--|

G|--------------------------------------------------------------|
D|--------------------------------------------------------------|
A|--------------------------------------------------------------|
D|--7-7-7-7-3-3-3-3-5-5-5-5-0-0-0-0-7-7-7-7-3-3-3-3-5-5-5-5-0~--|

Interlude
G|------------------------------------|
D|------------------------------------|
A|------------------------------------|
D|--77777777333333335555555500000000--|

G|--------------------------------------|
D|--------------------------------------|
A|----------------------------------5\--|
D|--7777777733333333555555550000000-----|

~Pause~

Bridge
G|------------------|
D|------------------| x2
A|------------------|
D|--7~-7~\--5~-5~\--|

Chorus
G|-------------------------------|
D|-------------------------------| x2
A|------------5^-----------------|
D|--7-7---3-3-----5-5---0-0-0-0--|

G|--------------------------------------------------------------|
D|--------------------------------------------------------------|
A|--------------------------------------------------------------|
D|--7-7-7-7-3-3-3-3-5-5-5-5-0-0-0-0-7-7-7-7-3-3-3-3-5-5-5-5-0~--|

| /  slide up
| \  slide down
| h  hammer-on
| p  pull-off
| ~  vibrato
| +  harmonic
| x  Mute note
===============================================================================
Suggest correction
comments
print report bad tab
guest
You may want to rate the tab now too:
select rating
Wanna post a correction for this tab? Suggest correction