Oops, an error
Loading. Please wait.

Broken Wing Tab

6,293 views 9 this week
no commentswrite comment
1 2 3 4 5
accurate
x 4
add to favorites
launch autoscroll
font size
0
reset
how to read this tab
guitar tuner
Tab Pro tools
  • play this tab
  • loop segment
  • change instrument
  • show fretboard
  • metronome
×
Best way to learn
"Broken Wing"
Autoscroll
slow
fast
+/-
esc
set tempo
stop
Intro:

E--------------------------------------|
B--------------------------------------|
G--------------------------------------|
D--------------------------------------|
A----------------------------5-5-5-5---|
E-5-5-5-5--1-1-1-1--3-3-3-3------------|

E--------------------------------------|
B--------------------------------------|
G--------------------------------------|
D--------------------------------------|
A----------------------------5^--------|
E-5-5-5-5--1-1-1-1--3-3-3-3------------|

Verse 1:
E--------------------------------------|
B--------------------------------------|
G--------------------------------------|
D-7-7-7-7--7-7-7-7--7-7-7-7------------|
A-7-7-7-7--7-7-7-7--7-7-7-7------------|
E-5-5-5-5--5-5-5-5--5-5-5-5------------|

E-----------------------------------------|
B-----------------------------------------|
G-----------------------------------------|
D-7-7-7--5-5-5--3-3-3-3--3-3-3-3--3-3-3-3-|
A-7-7-7--5-5-5--3-3-3-3--3-3-3-3--3-3-3-3-|
E-5-5-5--3-3-3--1-1-1-1--1-1-1-1--1-1-1-1-|

E--------------------------------------|
B--------------------------------------|
G--------------------------------------|
D-3-3-3--5-5-5-------------------------|
A-3-3-3--5-5-5-------------------------|
E-1-1-1--3-3-3-------------------------|

Chorus:

E--------------------------------------|
B--------------------------------------|
G----------------------------7-7-7-7---|
D-7-7-7-7--3-3-3-3--5-5-5-5--7-7-7-7---|
A-7-7-7-7--3-3-3-3--5-5-5-5--5-5-5-5---|
E-5-5-5-5--1-1-1-1--3-3-3-3------------|

Solo:

E-------------------------------------------------|
B-----------8---------8---------8---------7-------|
G-------5---------5---------5---------5-----------|
D---5-7---7---5-7---7---5-7---7---5-7---7---------|
A-------------------------------------------------|
E-------------------------------------------------|

E-------------------------------------------------|
B-----------8---------8b-8b-8b-8b-----------------|
G-------5---------5-------------------------------|
D---5-7---7---5-7---7-----------------------------|
A-------------------------------------------------|
E-------------------------------------------------|
comments
print report bad tab
I want to post or [tab]
guest
You may want to rate the tab now too:
select rating
Please do not post tabs as comments. Select "correction" instead!