Oops, an error
Loading. Please wait.

Come Along Bass Tab

version 1
version 1

Whole song

Interactive

538 views 3 this week
1 commentread comment
1 2 3 4 5
3 more votes to show rating
add to favorites
launch autoscroll
font size
0
reset
guitar tuner
Autoscroll
slow
fast
+/-
esc
set tempo
stop
Help us to improve Ultimate-Guitar.com Take our survey!
×
Author
Tuning
D A D G B E
-------------------------------------------------------------------------------
	Come Along - Thousand Foot Krutch
-------------------------------------------------------------------------------

Tuning: Drop D

Intro
G|-------|-------|-------|-------|-------|-------|-------|-------|  |-------|
D|-------|-------|-------|-------|-------|-------|-------|-------|  |-------|
A|-------|5-0-3-2|-------|5-0-3-2|3-33-33|5-0-3-2|3-33-33|5-0-0-2|  |-------| 
D|5-55-55|-------|2-22-22|-------|-------|-------|-------|-------|x2|5~~~~~~|

Verse
G|-------|-------|-------|-------|-------|-------|-------|-------|
D|-------|-------|-------|-------|-------|-------|-------|-------|
A|-------|-------|3-3-3-3|3-3-3-3|-------|-------|3-3-5-5|3-3-0-0|
D|5-5-5-5|5-5-5-5|-------|-------|2-2-2-2|2-2-2-2|-------|-------|x2

G|-------|-------|-------|-------|-------|-------|-------|-------|
D|-------|-------|-------|-------|-------|-------|-------|-------|
A|-------|-------|3-3-3-3|3-3-3-3|-------|-------|3-3-3-3|3-3-3-3|
D|5-5-5-5|5-5-5-5|-------|-------|2-2-2-2|2-2-2-2|-------|-------|x2

G|-------|-------|-------|-------|-------|-------|-------|-------|
D|-------|-------|-------|-------|-------|-------|-------|-------|
A|-------|-------|3------|3---3-3|-------|-------|3------|3---3-3|
D|5------|5---5-5|-------|-------|2------|2---2-2|-------|-------|x2

G|-------|-------|-------|-------|-------|-------|-------|-------|
D|-------|-------|-------|-------|-------|-------|-------|-------|
A|-------|-------|3-3-3-3|3-3-3-3|-------|-------|3-3-3-3|3-3-3-3|
D|5-5-5-5|5-5-5-5|-------|-------|2-2-2-2|2-2-2-2|-------|-------|x2

Chorus
G|-------|-------|-------|-------|-------|-------|-------|-------|
D|-------|-------|-------|-------|-------|-------|-------|-------|
A|-------|-------|3---3--|3---3-3|-------|-------|3---3--|3---3-3|
D|5---5--|5---5-5|-------|-------|2---2--|2---2-2|-------|-------|

G|-------|-------|-------|-------|-------|-------|-------|-------|
D|-------|-------|-------|-------|-------|-------|-------|-------|
A|-------|-------|3---3--|3---3-3|-------|-------|5---3--|0---2--|
D|5---5--|5---5-5|-------|-------|2---2--|2---2-2|-------|-------|

G|-------|-------|-------|-------|-------|-------|-------|-------|
D|-------|-------|-------|-------|-------|-------|-------|-------|
A|-------|-------|3---3--|3---3-3|-------|-------|3---3--|3---3-3|
D|5---5--|5---5-5|-------|-------|2---2--|2---2-2|-------|-------|

G|-------|-------|-------|-------|-------|-------|-------|-------|
D|-------|-------|-------|-------|-------|-------|-------|-------|
A|-------|-------|3---3--|3---3-3|-------|-------|5---3--|0---2--|
D|5---5--|5---5-5|-------|-------|2---2--|2---2-2|-------|-------|

Bass Solo
G|-------|-------|-------|-------|-------|-------|-------|
D|-------|-------|-------|-------|-------|-------|-------|
A|------3|3------|------2|2------|------0|0------|-------|
D|5--x---|--5----|2--x---|--2----|0--x---|--0-5-5|5-5-5-5|x4

Bridge
G|-------|-------|-------|-------|-------|-------|-------|-------|
D|-------|-------|-------|-------|-------|-------|-------|-------|
A|-------|R-E-S-T|-------|R-E-S-T|3-33-33|R-E-S-T|3-33-33|R-E-S-T| 
D|5-55-55|-------|2-22-22|-------|-------|-------|-------|-------|

G|-------|-------|-------|-------|-------|-------|-------|-------|
D|-------|-------|-------|-------|-------|-------|-------|-------|
A|-------|R-E-S-T|-------|R-E-S-T|3-33-33|R-E-S-T|3-33-33|5-0-0-2| 
D|5-55-55|-------|2-22-22|-------|-------|-------|-------|-------|

G|-------|-------|-------|-------|-------|-------|-------|-------|  |-------|
D|-------|-------|-------|-------|-------|-------|-------|-------|  |-------|
A|-------|5-0-3-2|-------|5-0-3-2|3-33-33|5-0-3-2|3-33-33|5-0-0-2|  |-------| 
D|5-55-55|-------|2-22-22|-------|-------|-------|-------|-------|x2|5~~~~~~|

G|-------|-------|-------|-------|-------|-------|  |-------|-------|-------|
D|-------|-------|-------|-------|-------|-------|  |-------|-------|-------|
A|2~~~~~~|~~~~~~~|3~~~~~~|~~~~~~~|-------|-------|  |2------|3-33~~~|~~~~~~~|
D|-------|-------|-------|-------|5~~~~~~|~~~~~~~|x3|-------|-------|-------|

Chorus
G|-------|-------|-------|-------|-------|-------|-------|-------|
D|-------|-------|-------|-------|-------|-------|-------|-------|
A|-------|-------|3---3--|3---3-3|-------|-------|3---3--|3---3-3|
D|5---5--|5---5-5|-------|-------|2---2--|2---2-2|-------|-------|

G|-------|-------|-------|-------|-------|-------|-------|-------|
D|-------|-------|-------|-------|-------|-------|-------|-------|
A|-------|-------|3---3--|3---3-3|-------|-------|5---3--|0---2--|
D|5---5--|5---5-5|-------|-------|2---2--|2---2-2|-------|-------|

G|-------|-------|-------|-------|-------|-------|-------|-------|
D|-------|-------|-------|-------|-------|-------|-------|-------|
A|-------|-------|3---3--|3---3-3|-------|-------|3---3--|3---3-3|
D|5---5--|5---5-5|-------|-------|2---2--|2---2-2|-------|-------|

G|-------|-------|-------|-------|-------|-------|-------|-------|
D|-------|-------|-------|-------|-------|-------|-------|-------|
A|-------|-------|3---3--|3---3-3|-------|-------|5---3--|0---2--|
D|5---5--|5---5-5|-------|-------|2---2--|2---2-2|-------|-------|

I WILL BE TRYING TO MAKE AN ALBUM TAB FOR SET IT OFF


| /  slide up
| \  slide down
| h  hammer-on
| p  pull-off
| ~  let note ring
| +  harmonic
| x  Mute note
===============================================================================

Suggest correction
Give kudos to tab author, rate the tab!
1 2 3 4 5
comments
print report bad tab
1 comment total.
0 reply
Grimwade 82 Jun 03, 2011 08:04 AM

Nice work man!
If you ever upload a cover of this let me know.

guest
You may want to rate the tab now too:
select rating
Wanna post a correction for this tab? Suggest correction