Oops, an error
Loading. Please wait.

E For Extinction Tab

version 2
version 2

Whole song

13,078 views 15 this week
7 commentsread comments
1 2 3 4 5
x 21
add to favorites
launch autoscroll
font size
0
reset
how to read this tab
guitar tuner
Autoscroll
slow
fast
+/-
esc
set tempo
stop
Author
[Verse 1]
(I’m not the same……)
C#|-------------------------------------------------------------------|
G#|-----1---3-----1-----1---3-----1-----1---3-----1-------3-----------|
E |---2---2-----2-----2---2-----2-----2---2-----2-----2-3-------------|
B |-0---------0------------------------------------------------3-2----|
F#|-----------------3---------3-----2---------2-----1------1-0--------|
B |-------------------------------------------------------------------|

(It’s hard to exlpain……)
C#|-------------------------------------------------------------------|
G#|-----1---3-----1-----1---3-----1-----1---3-----1-------3-----------|
E |---2---2-----2-----2---2-----2-----2---2-----2-----2-3-------------|
B |-0---------0------------------------------------------------3-2----|
F#|-----------------3---------3-----2---------2-----1------1-0--------|
B |-------------------------------------------------------------------|

(Drums come in)
C#|-------------------------------------------------------------------|
G#|-----1---3-----1-----1---3-----1-----1---3-----1-------3-----------|
E |---2---2-----2-----2---2-----2-----2---2-----2-----2-3-------------|
B |-0---------0------------------------------------------------3-2----|
F#|-----------------3---------3-----2---------2-----1------1-0--------|
B |-------------------------------------------------------------------|

(And I won’t surrender…)
C#|-------------------------------------------------------------------|
G#|-------------------------------------------------------------------|
E |-------------------------------------------------------------------|
B |-0-0-0-0-0-0-0-0-3-3-3-3-3-3-3-3-5-5-5-5-5-5-5-5-3-3-3-3-2-2-2-----|
F#|-0-0-0-0-0-0-0-0-3-3-3-3-3-3-3-3-5-5-5-5-5-5-5-5-3-3-3-3-2-2-2-----|
B |-0-0-0-0-0-0-0-0-3-3-3-3-3-3-3-3-5-5-5-5-5-5-5-5-3-3-3-3-2-2-2-----|
    . . . . . . . . . . . . . . . . . . . . . . . . . . . . . . .
                                                Step up and watch me break
[Pre-Chorus]
    Down!...
C#|-------------------------------------------------------------------|
G#|-------------------------------------------------------------------|
E |-------------------------------------------------------------------|  2x
B |-0-3-2-0-2-3-2-0---3-2-0-2-3-xxxx---0-3-2-0-2-3-2-0---3-2-0-2-3----|
F#|-0-3-2-0-2-3-2-0---3-2-0-2-3-xxxx---0-3-2-0-2-3-2-0---3-2-0-2-3----|
B |-0-3-2-0-2-3-2-0---3-2-0-2-3-xxxx---0-3-2-0-2-3-2-0---3-2-0-2-3----|

[Chorus]
C#|-------------------------------------------------------------------|
G#|-------------------------------------------------------------------|
E |-----------------5-5-5-5-------------------------5-5-5-5-----------|
B |-0-0-0-0-0-0-0-0-5-5-5-5-5-5-5-5-3-3-3-3-3-3-3-3-5-5-5-5-5-5-5-5---|
F#|-0-0-0-0-0-0-0-0-3-3-3-3-5-5-5-5-3-3-3-3-3-3-3-3-3-3-3-3-5-5-5-5---|
B |-0-0-0-0-0-0-0-0---------5-5-5-5-3-3-3-3-3-3-3-3---------5-5-5-5---|

C#|-------------------------------------------------------------------|
G#|-------------------------------------------------------------------|
E |-----------------5-5-5-5-------------------------------------------|
B |-0-0-0-0-0-0-0-0-5-5-5-5-5-5-5-5-3-3-3-3-3-3-3-3-5-5-5-5--5-3-2----|
F#|-0-0-0-0-0-0-0-0-3-3-3-3-5-5-5-5-3-3-3-3-3-3-3-3-5-5-5-5--5-3-2----|
B |-0-0-0-0-0-0-0-0---------5-5-5-5-3-3-3-3-3-3-3-3-5-5-5-5--5-3-2----|

[Verse 2]
C#|-------------------------------------------------------------------|
G#|-----1---3-----1-----1---3-----1-----1---3-----1-------3-----------|
E |---2---2-----2-----2---2-----2-----2---2-----2-----2-3-------------|
B |-0---------0------------------------------------------------3-2----|
F#|-----------------3---------3-----2---------2-----1------1-0--------|
B |-------------------------------------------------------------------|

(I can feel...)
C#|-------------------------------------------------------------------|
G#|-----1---3-----1-----1---3-----1-----1---3-----1-------3-----------|
E |---2---2-----2-----2---2-----2-----2---2-----2-----2-3-------------|
B |-0---------0------------------------------------------------3-2----|
F#|-----------------3---------3-----2---------2-----1------1-0--------|
B |-------------------------------------------------------------------|

(Cuz' we're....)
C#|-------------------------------------------------------------------|
G#|-----1---3-----1-----1---3-----1-----1---3-----1-------3-----------|
E |---2---2-----2-----2---2-----2-----2---2-----2-----2-3-------------|
B |-0---------0------------------------------------------------3-2----|
F#|-----------------3---------3-----2---------2-----1------1-0--------|
B |-------------------------------------------------------------------|

(I know...)
C#|-------------------------------------------------------------------|
G#|-------------------------------------------------------------------|
E |-------------------------------------------------------------------|
B |-0-0-0-0-0-0-0-0-3-3-3-3-3-3-3-3-5-5-5-5-5-5-5-5-3-3-3-3-2-2-3-2---|
F#|-0-0-0-0-0-0-0-0-3-3-3-3-3-3-3-3-5-5-5-5-5-5-5-5-3-3-3-3-2-2-3-2---|
B |-0-0-0-0-0-0-0-0-3-3-3-3-3-3-3-3-5-5-5-5-5-5-5-5-3-3-3-3-2-2-3-2---|
    . . . . . . . . . . . . . . . . . . . . . . . . . . . . . . . .

(We won't...)
C#|-------------------------------------------------------------------|
G#|-------------------------------------------------------------------|
E |-------------------------------------------------------------------|
B |-0-0-0-0-0-0-0-0-3-3-3-3-3-3-3-3-5-5-5-5-5-5-5-5-3-3-3-3-2-2-2-----|
F#|-0-0-0-0-0-0-0-0-3-3-3-3-3-3-3-3-5-5-5-5-5-5-5-5-3-3-3-3-2-2-2-----|
B |-0-0-0-0-0-0-0-0-3-3-3-3-3-3-3-3-5-5-5-5-5-5-5-5-3-3-3-3-2-2-2-----|
    . . . . . . . . . . . . . . . . . . . . . . . . . . . . . . .
                                                Step up and watch me break
[Pre-Chorus]
(Down!...)
C#|-------------------------------------------------------------------|
G#|-------------------------------------------------------------------|
E |-------------------------------------------------------------------|
B |-0-3-2-0-2-3-2-0---3-2-0-2-3-xxxx---0-3-2-0-2-3-2-0---3-2-0-2-3----|
F#|-0-3-2-0-2-3-2-0---3-2-0-2-3-xxxx---0-3-2-0-2-3-2-0---3-2-0-2-3----|
B |-0-3-2-0-2-3-2-0---3-2-0-2-3-xxxx---0-3-2-0-2-3-2-0---3-2-0-2-3----|

C#|-------------------------------------------------------------------|
G#|-------------------------------------------------------------------|
E |-------------------------------------------------------------------|
B |-0-3-2-0-2-3-2-0---3-2-0-2-3-xxxx---0-3-2-0-2-3-2-0---3-2-0-2-3-0--|
F#|-0-3-2-0-2-3-2-0---3-2-0-2-3-xxxx---0-3-2-0-2-3-2-0---3-2-0-2-3-0--|
B |-0-3-2-0-2-3-2-0---3-2-0-2-3-xxxx---0-3-2-0-2-3-2-0---3-2-0-2-3-0--|

[Chorus]
C#|-------------------------------------------------------------------|
G#|-------------------------------------------------------------------|
E |-----------------5-5-5-5-------------------------5-5-5-5-----------|
B |-0-0-0-0-0-0-0-0-5-5-5-5-5-5-5-5-3-3-3-3-3-3-3-3-5-5-5-5-5-5-5-5---|
F#|-0-0-0-0-0-0-0-0-3-3-3-3-5-5-5-5-3-3-3-3-3-3-3-3-3-3-3-3-5-5-5-5---|
B |-0-0-0-0-0-0-0-0---------5-5-5-5-3-3-3-3-3-3-3-3---------5-5-5-5---|

C#|-------------------------------------------------------------------|
G#|-------------------------------------------------------------------|
E |-----------------5-5-5-5-------------------------------------------|
B |-0-0-0-0-0-0-0-0-5-5-5-5-5-5-5-5-3-3-3-3-3-3-3-3-5-5-5-5--5-3-2----|
F#|-0-0-0-0-0-0-0-0-3-3-3-3-5-5-5-5-3-3-3-3-3-3-3-3-5-5-5-5--5-3-2----|
B |-0-0-0-0-0-0-0-0---------5-5-5-5-3-3-3-3-3-3-3-3-5-5-5-5--5-3-2----|

[Bridge]
(Are you ready? Are ya ready? Are ya ready for me? Are you ready? Are ya ready? Are ya
ready to see?!)
C#|-------------------------------------------------------------------|
G#|-------------------------------------------------------------------|
E |-------------------------------------------------------------------|
B |---------------------------------------------------------------6-6-|
F#|---------------------------------------------------------------6-6-|
B |---------------------------------------------------------------6-6-|

C#|-------------------------------------------------------------------|
G#|-------------------------------------------------------------------|
E |-------------------------------------------------------------------|
B |-0-3-2-0-5-3-2-3--0-3-2-0-5-3-2-3--0-3-2-0-5-3-2-3--0-3-2-0--------|
F#|-0-3-2-0-5-3-2-3--0-3-2-0-5-3-2-3--0-3-2-0-5-3-2-3--0-3-2-0--------|
B |-0-3-2-0-5-3-2-3--0-3-2-0-5-3-2-3--0-3-2-0-5-3-2-3--0-3-2-0--------|
                                                                         (2x)
C#|-------------------------------------------------------------------|
G#|-------------------------------------------------------------------|
E |-------------------------------------------------------------------| 
B |-6-6---------------------------------------------------------------|
F#|-6-6---------------------------------------------------------------|
B |-6-6---------------------------------------------------------------|

(Do not palm mute the last chord in the measure)
C#|-------------------------------------------------------------------|
G#|-------------------------------------------------------------------|
E |----5~----------------5~-------------------------------------------|
B |-0~-5~-3~-5~-------0~-5~--3-3-3-3-3-3-3-3 5-5-5-3-5-3--------------|
F#|-0~-3~-3~-5~--3/3--0~-3~--3-3-3-3-3-3-3-3-5-5-5-3-5-3--------------|
B |-0~----3~-5~--3/3--0~-----3-3-3-3-3-3-3-3-5-5-5-3-5-3--------------|
                             . . . . . . . . . . . . .

[Chorus](2x)
C#|-------------------------------------------------------------------|
G#|-------------------------------------------------------------------|
E |-----------------5-5-5-5-------------------------5-5-5-5-----------|
B |-0-0-0-0-0-0-0-0-5-5-5-5-5-5-5-5-3-3-3-3-3-3-3-3-5-5-5-5-5-5-5-5---|
F#|-0-0-0-0-0-0-0-0-3-3-3-3-5-5-5-5-3-3-3-3-3-3-3-3-3-3-3-3-5-5-5-5---|
B |-0-0-0-0-0-0-0-0---------5-5-5-5-3-3-3-3-3-3-3-3---------5-5-5-5---|

C#|-------------------------------------------------------------------|
G#|-------------------------------------------------------------------|
E |-----------------5-5-5-5-------------------------------------------|
B |-0-0-0-0-0-0-0-0-5-5-5-5-5-5-5-5-3-3-3-3-3-3-3-3-5-5-5-5--5-3-2----|
F#|-0-0-0-0-0-0-0-0-3-3-3-3-5-5-5-5-3-3-3-3-3-3-3-3-5-5-5-5--5-3-2----|
B |-0-0-0-0-0-0-0-0---------5-5-5-5-3-3-3-3-3-3-3-3-5-5-5-5--5-3-2----|

[Outro]
C#|-------------------------------------------------------------------|
G#|-------------------------------------------------------------------|
E |-------------------------------------------------------------------|
B |-0-3-2-0-5-3-2-3--0-3-2-0-5-3-2-3--0-3-2-0-5-3-2-3--0-3-2-0--------|
F#|-0-3-2-0-5-3-2-3--0-3-2-0-5-3-2-3--0-3-2-0-5-3-2-3--0-3-2-0--------|
B |-0-3-2-0-5-3-2-3--0-3-2-0-5-3-2-3--0-3-2-0-5-3-2-3--0-3-2-0--------|

C#|-------------------------------------------------------------------|
G#|-------------------------------------------------------------------|
E |-------------------------------------------------------------------|
B |-6-6/0-------------------------------------------------------------|
F#|-6-6/0-------------------------------------------------------------|
B |-6-6/0-------------------------------------------------------------|

************************************

| x  Dead note
| .  Staccato
| ~  Vibrato
| /  Slide up

************************************
Suggest correction
comments
print report bad tab
7 comments total. Showing first comments.
+3 reply
Jigglez? 52 Mar 08, 2011 04:47 PM

This tab is great man. Good job, I wouldn't change a thing!

0 reply
~LΣGACY~ 71 Mar 08, 2011 04:49 PM

Thanks!
And if any one is confused with the last 6/0 at the end don't do it real fast, just kinda hold it then at the last second slide down for effect ^.-

0 reply
Thaddaus 10 Mar 14, 2011 01:54 PM

good job man dont change it

guest
You may want to rate the tab now too:
select rating
Wanna post a correction for this tab? Suggest correction