Oops, an error
Loading. Please wait.

E For Extintion Bass Tab

version 1
version 1

Whole song

Interactive

2,871 views 9 this week
1 commentread comment
1 2 3 4 5
excellent!
x 4
add to favorites
launch autoscroll
font size
0
reset
guitar tuner
Autoscroll
slow
fast
+/-
esc
set tempo
stop
Help us to improve Ultimate-Guitar.com Take our survey!
×
Contributor
Tuning
SK8nBASS 2,439
B E A D F# B
-------------------------------------------------------------------------------
	E for Extinction - Thousand Foot Krutch
-------------------------------------------------------------------------------

Tuning: BEAD

~Come in with muted distorted guitar~

Verse
D|---------------------------------------------------------------|
A|---------------------------------------------------------------|
E|---------------------------------------------------------------|
B|--0-0-0-0-0-0-0-0-3-3-3-3-3-3-3-3-5-5-5-5-5-5-5-5-0-0-0-0-0-0--|

Pre-Chorus
D|---------------------------------|
A|---------------------------------| x4
E|--2-2-0-2-3-2-0-2---2-0-2-3-2-0--|
B|---------------------------------|

Chorus
D|-----------------------------------|    |------------------------------|
A|-----------------------------------| x3 |------------------------------|
E|--2-2-2-2-----------------0-0-0-0--|    |--2-2-2-2---------------3--2--|
B|----------0-0-0-0-3-3-3-3----------|    |----------0-0-0-0-3-3---------|

~Come in with muted distorted guitar~

Verse
D|-------------------------------------------------------------------|
A|-------------------------------------------------------------------|
E|-------------------------------------------------------------------|
B|--0-0-0-0-0-0-0-0-3-3-3-3-3-3-3-3-5-5-5-5-5-5-5-5-0-0-0-0-0-0-0-0--|

D|---------------------------------------------------------------|
A|---------------------------------------------------------------|
E|---------------------------------------------------------------|
B|--0-0-0-0-0-0-0-0-3-3-3-3-3-3-3-3-5-5-5-5-5-5-5-5-0-0-0-0-0-0--|

Pre-Chorus
D|---------------------------------|
A|---------------------------------| x4
E|--2-2-0-2-3-2-0-2---2-0-2-3-2-0--|
B|---------------------------------|

Chorus
D|-----------------------------------|    |------------------------------|
A|-----------------------------------| x3 |------------------------------|
E|--2-2-2-2-----------------0-0-0-0--|    |--2-2-2-2---------------3--2--|
B|----------0-0-0-0-3-3-3-3----------|    |----------0-0-0-0-3-3---------|

Bridge
D|-------------------|         |-------------------------------|
A|-------------------| x A lot |-------------------------------|
E|-------------------|         |-------0~--------2~--------0~--|
B|--0-3-2-0-5-3-2-3--|         |--0~--------0~--------0~-------|

D|-----------------------------------|
A|-----------------------------------|
E|------------------2-2-2-2-2-2-2-2--|
B|--0-0-0-0-0-0-0-0------------------|

Chorus
D|-----------------------------------|    |------------------------------|
A|-----------------------------------| x3 |------------------------------|
E|--2-2-2-2-----------------0-0-0-0--|    |--2-2-2-2---------------3--2--|
B|----------0-0-0-0-3-3-3-3----------|    |----------0-0-0-0-3-3---------|

D|-----------------------------------|
A|-----------------------------------| x3
E|--2-2-2-2-----------------0-0-0-0--|
B|----------0-0-0-0-3-3-3-3----------|

Outro
D|-------------------|         
A|-------------------| x A couple 
E|-------------------|         
B|--0-3-2-0-5-3-2-3--|         



| /  slide up
| \  slide down
| h  hammer-on
| p  pull-off
| ~  let note ring
| +  harmonic
| x  Mute note
===============================================================================

Suggest correction new What's this?
You can suggest a correction to this tab. Community and Mods will review your correction and vote to approve or reject it.
comments
print report bad tab
1 comment total.
0 reply
joel94 148 wrote on January 4 2010, 05:20 pm

sweet. finally someone did this

guest
You may want to rate the tab now too:
select rating
Please do not post tabs as comments. Select "correction" instead!