Oops, an error
Loading. Please wait.

E For Extintion Tab

version 1
version 1

Whole song

Interactive

5,195 views 6 this week
1 commentread comment
1 2 3 4 5
excellent!
x 8
add to favorites
launch autoscroll
font size
0
reset
how to read this tab
guitar tuner
Autoscroll
slow
fast
+/-
esc
set tempo
stop
Help us to improve Ultimate-Guitar.com Take our survey!
×
Author
Difficulty
Tuning
intermediate
B F# B E G# C#
                 Tuning Drop B:B F# B E G# C#

                         Verse
 -----------------------------------------------------------------------|
 -------1---3-----1------1---3--1----1---3----1-----1-3-----------------|
 ------2--------2------2-------2----2-------2-----2---------------------|
 ----0----0---0----------------------------------------------3-2--------|
 -------------------3------3--3---2----2---2----1-------1-0-------------|
 -----------------------------------------------------------------------|

                           Pre Chorus


 -----------------------------------------|
 -----------------------------------------|
 -----------------------------------------|
 ----0------------3----------5----------0-|8 Times
 ----0---8 Times--3--8 Times-5--8 Times-0-|     Palm Mute Throughout
 ----0------------3----------5----------0-|


                             Chorus Part 1


 --------------------------------------------|
 --------------------------------------------|
 --------------------------------------------|
 -3-3-2-0-2-3-2-0--3-2-0-2-3-2-3-------------|
 -3-3-2-0-2-3-2-0--3-2-0-2-3-2-3-------------|    4 Times
 -3-3-2-0-2-3-2-0--3-2-0-2-3-2-3-------------|

                              Chorus Part 2

 --------------------------------------------------------------------|
 --------------------------------------------------------------------|
 ----------5-5-5-5---------------------------------------------------|
 -0-0-0-0--5-5-5-5---3-3-3-3--5-5-5-5--------------------------------|
 -0-0-0-0--3-3-3-3---3-3-3-3--5-5-5-5--------------------------------|
 -0-0-0-0------------3-3-3-3--5-5-5-5--------------------------------|

   Then Verse 2 Then Pre Chorus Then Chorus Part 1 Then Chorus Part 2

                          Solo
 ----------------------------------------------------------------------|
 ----------------------------------------------------------------------|
 ----------------------------------------------------------------------|
 -0-3-2-0-5-3-2-3------------------------/6--/6------------------------|
 -0-3-2-0-5-3-2-3----2 Or 3 Times Then---/6--/6------------------------|
 -0-3-2-0-5-3-2-3------------------------/6--/6------------------------|

                          Bridge


G# -------------------------------------------------------------------|
E |-------------------------------------------------------------------|
B |--0-----5---0----7---0------5--------------------------------------|
F# --0-----5---0----7---0------5---0-0-0-0-0-0-0-0-3-3-3-3-3-3-3-3----|
B |--0-----5---0----7---0------5---0-0-0-0-0-0-0-0-3-3-3-3-3-3-3-3----|
Please Rate Thanks                 . . . . . . . . . . . . . . . .
Suggest correction
comments
print report bad tab
1 comment total.
0 reply
xxxlukexxx 10 wrote on June 24 2010, 04:29 pm

Bro...just spell the song title right next time

guest
You may want to rate the tab now too:
select rating
Wanna post a correction for this tab? Suggest correction