Oops, an error
Loading. Please wait.

Everyone Like Me Bass Tab

636 views 1 this week
1 commentread comment
1 2 3 4 5
2 more votes to show rating
add to favorites
launch autoscroll
font size
0
reset
guitar tuner
Autoscroll
slow
fast
+/-
esc
set tempo
stop
Help us to improve Ultimate-Guitar.com Take our survey!
×
Author
Tuning
D A D G B E
-------------------------------------------------------------------------------
	Everyone Like Me - Thousand Foot Krutch
-------------------------------------------------------------------------------

Tuning: Drop D

Verse
G|----------------------------------------------------------------------|
D|-0-0-12-12---0-0-0-12-12---0-0-0-12-12---8-0-8-0---0-0-0-7-7---0-0-3~-|
A|----------------------------------------------------------------------|
D|----------------------------------------------------------------------|x6
 
Pre-Chorus
G|-----------------------------|
D|-----3~--8~----------5~--10~-|
A|-3~--------------5~----------|
D|-----------------------------|

Chorus
G|-----------------------------------------------------------|
D|-----------------------------------------------------------|
A|-----------------------------------------------------------|
D|-0-0-12-12---0-0-12-12---0-12~-----8-8-8--8~---7-7-7--7-8~-|x4

Verse
G|----------------------------------------------------------------------|
D|- R E S T ---  R E S T  ---  R E S T  ---8-0-8-0---0-0-0-7-7---0-0-3~-|
A|----------------------------------------------------------------------|
D|----------------------------------------------------------------------|

G|----------------------------------------------------------------------|
D|-0-0-12-12---0-0-0-12-12---0-0-0-12-12---8-0-8-0---0-0-0-7-7---0-0-3~-|
A|----------------------------------------------------------------------|
D|----------------------------------------------------------------------|x2

Pre-Chorus
G|-----------------------------|
D|-----3~--8~----------5~--10~-|
A|-3~--------------5~----------|
D|-----------------------------|

Chorus
G|-----------------------------------------------------------|
D|-----------------------------------------------------------|
A|-----------------------------------------------------------|
D|-0-0-12-12---0-0-12-12---0-12~-----8-8-8--8~---7-7-7--7-8~-|x4

Bridge
G|---------------------|
D|---------------------| 
A|---------------------|
D|-00--0-3~---00--0-5~-|x3

G|-----------------------------|
D|-----3~--8~----------5~--10~-|
A|-3~--------------5~----------|
D|-----------------------------|

~Break~

Chorus
G|-----------------------------------------------------------|
D|-----------------------------------------------------------|
A|-----------------------------------------------------------|
D|-0-0-12-12---0-0-12-12---0-12~-----8-8-8--8~---7-7-7--7-8~-|x4


I WILL BE TRYING TO MAKE AN ALBUM TAB FOR SET IT OFF


| /  slide up
| \  slide down
| h  hammer-on
| p  pull-off
| ~  let note ring
| +  harmonic
| x  Mute note
===============================================================================

Suggest correction
Give kudos to tab author, rate the tab!
1 2 3 4 5
comments
print report bad tab
1 comment total.
0 reply
TFKfan365 52 Oct 07, 2013 03:08 PM

Pretty good, But not 100% accurate

guest
You may want to rate the tab now too:
select rating
Wanna post a correction for this tab? Suggest correction