Oops, an error
Loading. Please wait.

Everyone Like Me Tab

version 2
version 2

Whole song

3,370 views 1 this week
2 commentsread comments
1 2 3 4 5
excellent!
x 6
add to favorites
launch autoscroll
font size
0
reset
how to read this tab
guitar tuner
Autoscroll
slow
fast
+/-
esc
set tempo
stop
Help us to improve Ultimate-Guitar.com Take our survey!
×
Author
Thousand Foot Krutch
Everyone Like Me
Tabbed by U B the band
Tuning D A D G B E

h-hammer
pm-palm mute
\-slide down

Intro/verse Guitar 1: 00:00
E|-------------------------------------------------------------|
B|-------------------------------------------------------------|
G|-------------------------------------------------------------|
D|-------------------------------------------------------------|
A|------5-----------5-----------5---------5-----5-----5--------|
D|--0-0---0---0-0-0---0---0-0-0---0---8-8---8-8---8-7---0-2-3--|x6

Guitar 2: 00:23 palm mute *play 2 times*
E|------------------------------------------------------------------------|
B|------------------------------------------------------------------------|
G|--10-10-9-9-5-5-7-7-10-10-9-9-5h7-10-10-9-9-10-10-12-12-10-10-9-9-10-9--|
D|------------------------------------------------------------------------|
A|------------------------------------------------------------------------|
D|------------------------------------------------------------------------|

Guitar 3: 00:23 palm muted fill-in...listen to CD
E|-----------------------------------|
B|-----------------------------------|
G|-----------------------------------|
D|-----------------------------------|
A|--0000-0000-0000--8888-7777-0-2-3--|
D|--0000-0000-0000--8888-7777-0-2-3--|x2

Pre-chorus: 00:35
E|-------------------|
B|-------------------|
G|-------10------12--|
D|------8------10----|
A|----8------10------|
D|--8------10--------|

Chorus: 00:41
E|---------------------------------------------------------|
B|---------------------------------------------------------|
G|---------------------------------------------------------|
D|------14-14------14-14----14------10-10-----7-7----8-\7--|
A|------12-12------12-12----12------8--8------7-7----8-\7--|
D|--0-0-12-12--0-0-12-12--0-12--8-8-8--8--7-7-7-7--7-8-\7--|x4
    pmpm       pmpm      pm     pmpm      pmpm    pm

verse two Guitar 1: 01:05
E|-------------------------------------------------------------|
B|-------------------------------------------------------------|
G|-------------------------------------------------------------|
D|-------------------------------------------------------------|
A|------5-----------5-----------5---------5-----5-----5--------|
D|--0-0---0---0-0-0---0---0-0-0---0---8-8---8-8---8-7---0-2-3--|x4

Guitar 2: 01:17 palm mute *play 2 times*
E|------------------------------------------------------------------------|
B|------------------------------------------------------------------------|
G|--10-10-9-9-5-5-7-7-10-10-9-9-5h7-10-10-9-9-10-10-12-12-10-10-9-9-10-9--|
D|------------------------------------------------------------------------|
A|------------------------------------------------------------------------|
D|------------------------------------------------------------------------|

Guitar three: 01:17 palm muted fill-in...listen to CD
E|-----------------------------------|
B|-----------------------------------|
G|-----------------------------------|
D|-----------------------------------|
A|--0000-0000-0000--8888-7777-0-2-3--|
D|--0000-0000-0000--8888-7777-0-2-3--|x2

Pre-chorus: 01:29
E|-------------------|
B|-------------------|
G|-------10------12--|
D|------8------10----|
A|----8------10------|
D|--8------10--------|

Chorus: 01:35
E|---------------------------------------------------------|
B|---------------------------------------------------------|
G|---------------------------------------------------------|
D|------14-14------14-14----14------10-10-----7-7----8-\7--|
A|------12-12------12-12----12------8--8------7-7----8-\7--|
D|--0-0-12-12--0-0-12-12--0-12--8-8-8--8--7-7-7-7--7-8-\7--|x4
    pmpm       pmpm      pm     pmpm      pmpm    pm

Bridge: 01:58
E|----------------------------------------------------------|
B|----------------------------------------------------------|
G|--------7---------------------------7---------------------|
D|------7---7----00-0-3-00-0-5------7---7----00-0-3-00-0-3--|
A|----5-------5--00-0-3-00-0-5----5-------5--00-0-3-00-0-3--|
D|--5------------00-0-3-00-0-5--5------------00-0-3-00-0-3--|

E|------------------------------|
B|------------------------------|
G|--------7---------------------|
D|------7---7----00-0-3-00-0-5--|
A|----5-------5--00-0-3-00-0-5--|
D|--5------------00-0-3-00-0-5--|

Pre-chorus: 02:16
E|-------------------|
B|-------------------|
G|-------10------12--|
D|------8------10----|
A|----8------10------|
D|--8------10--------|

Chorus: Guitar 1 plays alone  02:22
E|---------------------------------------------------------|
B|---------------------------------------------------------|
G|---------------------------------------------------------|
D|------14-14------14-14----14------10-10-----7-7----8-\7--|
A|------12-12------12-12----12------8--8------7-7----8-\7--|
D|--0-0-12-12--0-0-12-12--0-12--8-8-8--8--7-7-7-7--7-8-\7--|x2
    pmpm       pmpm      pm     pmpm      pmpm    pm

Chorus: 02:34
E|---------------------------------------------------------|
B|---------------------------------------------------------|
G|---------------------------------------------------------|
D|------14-14------14-14----14------10-10-----7-7----8-\7--|
A|------12-12------12-12----12------8--8------7-7----8-\7--|
D|--0-0-12-12--0-0-12-12--0-12--8-8-8--8--7-7-7-7--7-8-\7--|x4
    pmpm       pmpm      pm     pmpm      pmpm    pm

Finished!
Suggest correction
What's this?
You can suggest a correction to this tab. Community and Mods will review your correction and vote to approve or reject it.
comments
print report bad tab
2 comments total.
0 reply
ice_wiz 154 wrote on August 18 2006, 06:30 pm

Sweet, way better than the ones on CGR!

0 reply
ice_wiz 154 wrote on August 18 2006, 06:30 pm

Sweet, seems great!

guest
You may want to rate the tab now too:
select rating
Please do not post tabs as comments. Select "correction" instead!