Oops, an error
Loading. Please wait.

Faith Love And Happiness Bass Tab

1,345 views 21 this week
no commentswrite comment
1 2 3 4 5
excellent!
x 3
add to favorites
launch autoscroll
font size
0
reset
guitar tuner
Autoscroll
slow
fast
+/-
esc
set tempo
stop
Help us to improve Ultimate-Guitar.com Take our survey!
×
Author
Tuning
D A D G B E
-------------------------------------------------------------------------------
		Faith, Love and Happiness - Thousand Foot Krutch
-------------------------------------------------------------------------------

Tuning: Drop D

Intro
G|------------------------------|
D|------------------------------|
A|----------65---------66-x-66--|
D|--5-873-1---8-5-5-873---------|

G|--------------------------------|
D|--------------------------------|
A|----------65---------xx6-xx6----|
D|--5-873-1---8-5-5-873-----------|

Verse
G|---------------------------------------------|
D|---------------------------------------------| 
A|---------------------------------------------|
D|--5/12~------10h11h12~---8~----10~---10/15~--|

G|-------------------------------------------------|
D|-------------------------------------------------|
A|-------------------------------------------------|
D|--5/12---101112--10h11h12~---8~----10~----7-8-5--|

Chorus
G|-------------------------------------------------------|
D|-------------------------------------------------------| x2
A|-------------------------------------------------------|
D|--10-8-5----1~--1--3-33-3--10-8-5----1-1/10~--3-3-3-3--|

G|--------------------------------|
D|--------------------------------|
A|----------65---------xx6-xx6----|
D|--5-873-1---8-5-5-873-----------|

Verse
G|-----------------------------------------------------|
D|-----------------------------------------------------|
A|-----------------------------------------------------|
D|--5/12~---7-8--x-10-11--x-11-12--8~----10~---10/15~--|

G|--------------------------------------------------|
D|--------------------------------------------------|
A|--------------------------------------------------|
D|--5/12~--11-12--x-12~--x-12~--8~----10~----7-8-5--|

Chorus
G|-------------------------------------------------------|
D|-------------------------------------------------------| x2
A|-------------------------------------------------------|
D|--10-8-5----1~--1--3-33-3--10-8-5----1-1/10~--3-3-3-3--|

Bridge
G|------------------------------------------------------------------------------|
D|------------------------------------------------------------------------------|
A|------------------------------------------------------------------------------|
D|--10-10-10---10-10-10---12-12-12---12-12-12---13-13-13---13-13-13---15-15-15--|

G|------------------------------------------------------------------------------|
D|------------------------------------------------------------------------------|
A|------------------------------------------------------------------------------|
D|--15-15-15---10-10-10---10-10-10---12-12-12---12-12-12---13-13-13---13-13-13--|

G|-------------------------------------------------------------------------|
D|-------------------------------------------------------------------------|
A|-------------------------------------------------------------------------|
D|--15-15-15---15-15-15---10-10-10-10-10-10-10-10-12-12-12-12-12-12-12-12--|
G|---------------------------------------|
D|---------------------------------------|
A|---------------------------------------|
D|--13-13-13-13-13-13-13-13-15-15-15-15--|

Chorus
G|-------------------------------------------------------|
D|-------------------------------------------------------| x2
A|-------------------------------------------------------|
D|--10-8-5----1~--1--3-33-3--10-8-5----1-1/10~--3-3-3-3--|

Outro x2
G|------------------------------|
D|------------------------------|
A|----------65---------66-x-66--|
D|--5-873-1---8-5-5-873---------|

G|--------------------------------|
D|--------------------------------|
A|----------65---------xx6-xx6----|
D|--5-873-1---8-5-5-873-----------|


FINALLY GOT IT!!! Great song, kinda hard to figure out but finally got it!!!


| /  slide up
| \  slide down
| h  hammer-on
| p  pull-off
| ~  vibrato
| +  harmonic
| x  Mute note
===============================================================================
Suggest correction
What's this?
You can suggest a correction to this tab. Community and Mods will review your correction and vote to approve or reject it.
comments
We did not receive enough feedback on this tab! Please rate:
print report bad tab
1 2 3 4 5
guest
You may want to rate the tab now too:
select rating
Please do not post tabs as comments. Select "correction" instead!