Oops, an error
Loading. Please wait.

Falls Apart Bass Tab

version 1
version 1

Whole song

Interactive

5,391 views 6 this week
3 commentsread comments
1 2 3 4 5
1 last vote to show rating
add to favorites
launch autoscroll
font size
0
reset
guitar tuner
Autoscroll
slow
fast
+/-
esc
set tempo
stop
Help us to improve Ultimate-Guitar.com Take our survey!
×
Difficulty
Tuning
intermediate
C G C F A D
BASS TAB FOR FALLS APART
You can Email me at: bond45xp3@hotmail.com if you think its wrong anywhere and i will tr
fix it thank you and have a fun tiem plaing it.

Ok this is the first tab I have done so if it looks  hard to get I am  sorry.It is prity
though I have put the song in order from start to finish so if you follow it you sould
fine.The verses are the only thing I ma not 100% on I used a tuner and my elec guitar in 
c to get the notes but I am not sure if there right but it sound like it is so I
go with it.
1:is the intro and filler
2:is the chores
3:is the pre-verses
4:is the verses
5:is more filler
6:is even more filler
7:is the brige
8:is your outro

1:
G[-----------------------------------------------------]
D[-----------------------------------------------------]
A[-----------------------------------------------------]
C[0-0/8-887753/5-0-0/8-8877/(10)(10)(10)---------------]

G[-----------------------------------------------------]
D[-----------------------------------------------------]
A[-----------------------------------------------------]
C[0--0/8-88sd335/5-0-0/8-8877/(10)(10)-----------------]

2:
G[-----------------------------------------------------]
D[-----------------------------------------------------]
A[-----------------------------------------------------]
C[0-0/8-887753/5-0-0/8-8877/(10)(10)(10)---------------]

G[-----------------------------------------------------]
D[-----------------------------------------------------]
A[-----------------------------------------------------]
C[0--0/8-88sd335/5-0-0/8-8877/(10)(10)-----------------]

3:
G[-----------------------------------------------------]
D[-----------------------------------------------------]
A[---------------------------------8-6-5-1-------------]
C[---0-0-7-5---0-0-7-5---------------------------------]

4:
G[-----------------------------------------------------]
D[-----------------------------------------------------]
A[------------------8-6-5-1----------------------------]
C[---0-0-7-5-------------------------------------------]

5:
G[-----------------------------------------------------]
D[-----------------------------------------------------]
A[-----------------------------------------------------]
C[-8-88-8-8-88-8/5-55-(10)(10)(10)(10)(10)-------------]

1:
G[-----------------------------------------------------]
D[-----------------------------------------------------]
A[-----------------------------------------------------]
C[0-0/8-887753/5-0-0/8-8877/(10)(10)(10)---------------]

G[-----------------------------------------------------]
D[-----------------------------------------------------]
A[-----------------------------------------------------]
C[0--0/8-88sd335/5-0-0/8-8877/(10)(10)-----------------]

6:
G[-----------------------------------------------------]
D[-----------------------------------------------------]
A[-----------------------------------------------------]
C[0-0/8-887753/5---------------------------------------]

4:
G[-----------------------------------------------------]
D[-----------------------------------------------------]
A[------------------8-6-5-1----------------------------]
C[---0-0-7-5-------------------------------------------]

1:
G[-----------------------------------------------------]
D[-----------------------------------------------------]
A[-----------------------------------------------------]
C[0-0/8-887753/5-0-0/8-8877/(10)(10)(10)---------------]

G[-----------------------------------------------------]
D[-----------------------------------------------------]
A[-----------------------------------------------------]
C[0--0/8-88sd335/5-0-0/8-8877/(10)(10)-----------------]

6:
G[-----------------------------------------------------]
D[-----------------------------------------------------]
A[-----------------------------------------------------]
C[0-0/8-887753/5---------------------------------------]

1:
G[-----------------------------------------------------]
D[-----------------------------------------------------]
A[-----------------------------------------------------]
C[0-0/8-887753/5-0-0/8-8877/(10)(10)(10)---------------]

G[-----------------------------------------------------]
D[-----------------------------------------------------]
A[-----------------------------------------------------]
C[0--0/8-88sd335/5-0-0/8-8877/(10)(10)-----------------]

6:
G[-----------------------------------------------------]
D[-----------------------------------------------------]
A[-----------------------------------------------------]
C[0-0/8-887753/5---------------------------------------]

7:X4
G[-----------------------------------------------------]
D[-----------------------------------------------------]
A[-----------------------------------------------------]
C[8888----8888----5555----5555-------------------------]

G[-----------------------------------------------------]
D[-----------------------------------------------------]
A[-----------------------------------------------------]
C[8888----8888----5555----5555-------------------------]

G[-----------------------------------------------------]
D[-----------------------------------------------------]
A[-----------------------------------------------------]
C[8888----8888----5555----5555-------------------------]

G[-----------------------------------------------------]
D[-----------------------------------------------------]
A[-----------------------------------------------------]
C[8888----8888----5555----5555-------------------------]

2:X4
G[-----------------------------------------------------]
D[-----------------------------------------------------]
A[-----------------------------------------------------]
C[0-0/8-887753/5-0-0/8-8877/(10)(10)(10)---------------]

G[-----------------------------------------------------]
D[-----------------------------------------------------]
A[-----------------------------------------------------]
C[0-0/8-887753/5-0-0/8-8877/(10)(10)(10)---------------]

G[-----------------------------------------------------]
D[-----------------------------------------------------]
A[-----------------------------------------------------]
C[0-0/8-887753/5-0-0/8-8877/(10)(10)(10)---------------]

G[-----------------------------------------------------]
D[-----------------------------------------------------]
A[-----------------------------------------------------]
C[0--0/8-88sd335/5-0-0/8-8877/(10)(10)-----------------]

G[-----------------------------------------------------]
D[-----------------------------------------------------]
A[-----------------------------------------------------]
C[0-0/8-887753/5-0-0/8-8877/(10)(10)(10)---------------]

G[-----------------------------------------------------]
D[-----------------------------------------------------]
A[-----------------------------------------------------]
C[0--0/8-88sd335/5-0-0/8-8877/(10)(10)-----------------]

G[-----------------------------------------------------]
D[-----------------------------------------------------]
A[-----------------------------------------------------]
C[0-0/8-887753/5-0-0/8-8877/(10)(10)(10)---------------]

G[-----------------------------------------------------]
D[-----------------------------------------------------]
A[-----------------------------------------------------]
C[0--0/8-88sd335/5-0-0/8-8877/(10)(10)-----------------]

8:
G[-----------------------------------------------------]
D[-----------------------------------------------------]
A[-----------------------------------------------------]
C[-0-0/0-00/0/55---0-0/0-00/0/(10)(10)-----------------]
Suggest correction
Give kudos to tab author, rate the tab!
1 2 3 4 5
comments
print report bad tab
3 comments total.
0 reply
phasesevenfold 213 Aug 20, 2009 11:34 PM

yours and the other version are basically the same, it's just that the way the other one is tabbed out is a little easier to play the second part of the verse riff.

but the first part of the verse riff sounds better the way you have it, so it's pretty much even. Good job

0 reply
SK8nBASS 1,851 Aug 25, 2009 09:34 AM

phasesevenfold is right, but i think joel would play it more how you have it!

0 reply
Haloquadratum 110 May 22, 2013 09:47 AM

At what rhythm is the verse played? It's hard to hear in the song.

guest
You may want to rate the tab now too:
select rating
Wanna post a correction for this tab? Suggest correction