Oops, an error
Loading. Please wait.

Falls Apart Tab

version 1
version 1

Whole song

Interactive

28,452 views 9 this week
15 commentsread comments
1 2 3 4 5
excellent!
x 25
add to favorites
launch autoscroll
font size
0
reset
how to read this tab
guitar tuner
Autoscroll
slow
fast
+/-
esc
set tempo
stop
Help us to improve Ultimate-Guitar.com Take our survey!
×
Author
Difficulty
Tuning
intermediate
C G C F A D
Artist: Thousand Foot Krutch
Album: The Flame In All Of Us
Song: Falls Apart
Tooth and Nail Records
Tabbed By: David Cui
Tunnig: Drop C (CGCFAD)

Intro:
D-----------------------------------------------------------|
A-----------------------------------------------------------|
F-----------------------------------------------------------|
C-0-0/8-887753/5----0-0/8-8877(10)(10)(10)------------------|
G-0-0/8-887753/5----0-0/8-8877(10)(10)(10)------------------|
C-0-0/8-887753/5----0-0/8-8877(10)(10)(10)------------------|

D-----------------------------------------------------------|
A-----------------------------------------------------------|
F-----------------------------------------------------------|
C-0-0/8-88sd335/5----0-0/8-8877(10)(10)---------------------|
G-0-0/8-88sd335/5----0-0/8-8877(10)(10)---------------------|
C-0-0/8-88sd335/5----0-0/8-8877(10)(10)---------------------|

Chorus:
D-----------------------------------------------------------|
A-----------------------------------------------------------|
F-----------------------------------------------------------|
C-0-0/8-887753/5----0-0/8-8877(10)(10)(10)------------------|
G-0-0/8-887753/5----0-0/8-8877(10)(10)(10)------------------|
C-0-0/8-887753/5----0-0/8-8877(10)(10)(10)------------------|

D-----------------------------------------------------------|
A-----------------------------------------------------------|
F-----------------------------------------------------------|
C-0-0/8-88sd335/5----0-0/8-8877(10)(10)---------------------|
G-0-0/8-88sd335/5----0-0/8-8877(10)(10)---------------------|
C-0-0/8-88sd335/5----0-0/8-8877(10)(10)---------------------|

Pre Verse:
D-----------------------------------------------------------|
A---------------------------------8-6-5---------------------|
F---------------------------------------5-------------------|
C-------7-5-------------7-5---------------------------------|
G---5-5-------------5-5-------------------------------------|
C-----------------------------------------------------------|

Verse 1:
D-----------------------------------------------------------|
A----------------------------------8-6-5--------------------|
F----------------------------------------5------------------|
C-------------------7-5-------------------------------------|
G---------------5-5-----------------------------------------|
C-----------------------------------------------------------|

PreChorus:
D-----------------------------------------------------------|
A-----------------------------------------------------------|
F-----------------------------------------------------------|
C-8-88-8-8-88-8/5-55-(10)(10)(10)(10)(10)-------------------|
G-8-88-8-8-88-8/5-55-(10)(10)(10)(10)(10)-------------------|
C-8-88-8-8-88-8/5-55-(10)(10)(10)(10)(10)-------------------|

Chorus

Fill:
D-----------------------------|
A-----------------------------|
F-----------------------------|
C-0-0/8-887753/5--------------|
G-0-0/8-887753/5--------------|
c-0-0/8-887753/5--------------|

Verse 2: (Same as Verse 1)

Prechorus

Chorus + Fill (x2)

Bridge (x4):
D-----------------------------------------------------------|
A-----------------------------------------------------------|
F-----------------------------------------------------------|
C-8888-------8888-------5555-------5555---------------------|
G-8888-------8888-------5555-------5555---------------------|
C-8888-------8888-------5555-------5555---------------------|


Bridge (Continued x3):
D-----------------------------------------------------------|
A-----------------------------------------------------------|
F-----------------------------------------------------------|
C-0-0/8-887753/5----0-0/8-8877(10)(10)(10)------------------|
G-0-0/8-887753/5----0-0/8-8877(10)(10)(10)------------------|
C-0-0/8-887753/5----0-0/8-8877(10)(10)(10)------------------|
P.M..........................................................

Then:
D-----------------------------------------------------------|
A-----------------------------------------------------------|
F-----------------------------------------------------------|
C-0-0/8-88sd335/5----0-0/8-8877(10)(10)(10)--------xxxxxx---|
G-0-0/8-88sd335/5----0-0/8-8877(10)(10)(10)--------xxxxxx---|
C-0-0/8-88sd335/5----0-0/8-8877(10)(10)(10)--------xxxxxx---|
P.M..........................................................

Chorus (x2)

Outro:
D-----------------------------------------------------------|
A-----------------------------------------------------------|
F-----------------------------------------------------------|
C-0-0/0-00/0/55----0-0/0-00/0/(10)(10)----------------------|
G-0-0/0-00/0/55----0-0/0-00/0/(10)(10)----------------------|
C-0-0/0-00/0/55----0-0/0-00/0/(10)(10)----------------------|

I looked over the other tab, and I was suprised to find a tab that was correct.
On all of the other websites the tab was WAY off, so i decied to take a stab at
writing tabs out.  This is my rist tab, and I think it has all of the right notes,
chords, etc. The tab i saw on the site seemed a little off, so i wanted to post this 
up.  ENJOY!
Suggest correction
comments
print report bad tab
15 comments total. Showing first comments.
+2 reply
ryan_guitarist 31 wrote on April 30 2008, 06:11 pm

Great tab, sounds good. Love this album. GO TFK!

+2 reply
imnotalright11 10 wrote on May 20 2008, 04:01 pm

great job

+3 reply
fenne50 10 wrote on August 27 2008, 04:46 pm

how do u slide from 5 to 5
?

guest
You may want to rate the tab now too:
select rating
Please do not post tabs as comments. Select "correction" instead!