Oops, an error
Loading. Please wait.

Falls Apart Bass Tab

version 2
version 2

Whole song

Interactive

2,431 views 3 this week
2 commentsread comments
1 2 3 4 5
accurate
x 3
add to favorites
launch autoscroll
font size
0
reset
guitar tuner
Autoscroll
slow
fast
+/-
esc
set tempo
stop
Help us to improve Ultimate-Guitar.com Take our survey!
×
Author
Difficulty
Tuning
novice
C G C F A D
Thousand Foot Krutch
The Flame in all of Us
Falls Apart

I did't think that the new bass tab was not very good. Olus dropped C tuning
is CGCF not CADG. plus the way I tab this it is easier to play.

Dropped C tuning CGCF



intro/ chorus
[-----------------------------------------------------]
[-----------------------------------------------------]
[---1-1100---------1-1100--3-3-3----------------------]
[0-0---------35-0-0-----------------------------------]

[-----------------------------------------------------]
[-----------------------------------------------------]
[-----1-11------------1-1100--3-3---------------------]
[0--0-------335-5-0-0---------------------------------]


[-----------------------------------------------------]
[-----------------------------------------------------]
[----1-1100---------1-1100--3-3-3---------------------]
[0-0-------53/5-0-0-----------------------------------]

[------------------------------------------------]
[------------------------------------------------]
[-----1-11------------1-1100---------------------]
[0--0-------335-5-0-0-------3--3-----------------]

verse
[-----------------------------------------------------]
[----------------------------------3-1-0--------------]
[-------0---------0---------------------1-------------]
[---0-0---5---0-0---5---------------------------------]


[-----------------------------------------------------]
[------------------3-1-0------------------------------]
[-------0----------------1----------------------------]
[---0-0---5-------------------------------------------]

Pre chorus
[-------------------------------------------]
[-------------------------------------------]
[-1-11-1-1-11-1-------3-3-3-3-3-------------]
[---------------5-55------------------------]


PLay chorus 


[----------------------------------------------------]
[------------------3-1-0-----------------------------]
[-------0----------------1---------------------------]
[---0-0--5-------------------------------------------]

play prechorus and chorus again

X4
[-----------------------------------------------------]
[-----------------------------------------------------]
[1111----1111-----------------------------------------]
[----------------5555----5555-------------------------]

[-----------------------------------------------------]
[-----------------------------------------------------]
[1111----1111-----------------------------------------]
[111111111111----5555----5555-------------------------]

[-----------------------------------------------------]
[-----------------------------------------------------]
[1111----1111-----------------------------------------]
[----------------5555----5555-------------------------]

[-----------------------------------------------------]
[-----------------------------------------------------]
[1111----1111-----------------------------------------]
[----------------5555----5555-------------------------]

X4 chorus


 outro
[-----------------------------------------------------]
[-----------------------------------------------------]
[-----------------------------------------------------]
[-0-0-0-00-0-55---0-0-0-00-03-3-----------------------]
Suggest correction
What's this?
You can suggest a correction to this tab. Community and Mods will review your correction and vote to approve or reject it.
comments
We did not receive enough feedback on this tab! Please rate:
print report bad tab
1 2 3 4 5
2 comments total.
0 reply
hardyzr1 16 wrote on January 11 2009, 10:25 pm

I agree its way easier to play

0 reply
phasesevenfold 429 wrote on August 20 2009, 11:36 pm

the chorus sounds better in the over version, the natural slide up and down the C string makes it sound more consistent. Mixing together the two tabs is what I did for my own personal use, good job on it.

guest
You may want to rate the tab now too:
select rating
Please do not post tabs as comments. Select "correction" instead!