Oops, an error
Loading. Please wait.

Favorite Disease Bass Tab

version 1
version 1

Whole song

Interactive

1,996 views 3 this week
1 commentread comment
1 2 3 4 5
x 4
add to favorites
launch autoscroll
font size
0
reset
guitar tuner
Autoscroll
slow
fast
+/-
esc
set tempo
stop
Help us to improve Ultimate-Guitar.com Take our survey!
×
Author
Tuning
D A D G B E
Favorite Disease - Thousand Foot Krutch
Tunning - Drop D

(~Re-Done~)

Intro/Verse 
   1  2  3  4  + 1  2  3  4  + 1  2  3  4 + 1  2  3  4 
G|-------------|-------------|------------|-------------|
D|-3--3--3-x30-|-2--2--2--x2-|-3--3--3----|----3-----5~-|
A|-------------|-------------|------------|-1~--1-3~----|
D|-------------|-------------|------------|-------------|x6
				
Pre-Chorus 
   1   2   3   4   + 1   2   3   4   + 1   2   3   4   + 1   2   3   4
G|-----------------|-----------------|-----------------|-----------------|
D|-----------------|-----------------|-----------------|-----------------| 
A|-5-5-5-5-5-5-5-5-|-1-1-1-1---------|-----------------|-1-1-1-1-0-0-0-0-|
D|-----------------|---------5-5-5-5-|-3-3-3-3-3-3-3-3-|-----------------|

   1   2   3   4   + 1   2   3   4   + 1   2   3   4   + 1   2   3   4
G|-----------------|-----------------|-----------------|-----------------|
D|-----------------|-----------------|-----------------|-----------------| 
A|-5-5-5-5-5-5-5-5-|-1-1-1-1---------|-----------------|-1-1-1-1-3-3-3-3-|
D|-----------------|---------5-5-5-5-|-3-3-3-3-3-3-3-3-|-----------------|

Chorus 
   1   2   3   4   + 1   2   3   4   + 1   2   3   4   + 1   2   3   4   
G|-----------------|-----------------|-----------------|-----------------|
D|-----------------|-----------------|-----------------|-----------------|
A|-----------------|-1-1-1-1---------|-----------------|-1-1-1-1-3-3-3-3-|
D|-5-5-5-5-1-1-1-1-|---------3-3-3-3-|-5-5-5-5-1-1-1-1-|-----------------|

   1   2   3   4   + 1   2   3   4   + 1   2   3   4   + 1   2   3   4   
G|-----------------|-----------------|-----------------|-----------------|
D|-----------------|-----------------|-----------------|-----------------|
A|-----------------|---------1-1-1-1-|-----------------|-1-1-1-1---------|
D|-5-5-5-5-1-1-1-1-|-3-3-3-3---------|-5-5-5-5-1-1-1-1-|---------3-3-3-3-|

Verse 
   1  2  3  4  + 1  2  3  4  + 1  2  3  4 + 1  2  3  4 
G|-------------|-------------|------------|-------------|
D|-3--3--3-x30-|-2--2--2--x2-|-3--3--3----|----3-----5~-|
A|-------------|-------------|------------|-1~--1-3~----|
D|-------------|-------------|------------|-------------|x3
								
Pre-Chorus 
   1   2   3   4   + 1   2   3   4   + 1   2   3   4   + 1   2   3   4
G|-----------------|-----------------|-----------------|-----------------|
D|-----------------|-----------------|-----------------|-----------------| 
A|-5-5-5-5-5-5-5-5-|-1-1-1-1---------|-----------------|-1-1-1-1-0-0-0-0-|
D|-----------------|---------5-5-5-5-|-3-3-3-3-3-3-3-3-|-----------------|

   1   2   3   4   + 1   2   3   4   + 1   2   3   4   + 1   2   3   4
G|-----------------|-----------------|-----------------|-----------------|
D|-----------------|-----------------|-----------------|-----------------| 
A|-5-5-5-5-5-5-5-5-|-1-1-1-1---------|-----------------|-1-1-1-1-3-3-3-3-|
D|-----------------|---------5-5-5-5-|-3-3-3-3-3-3-3-3-|-----------------|

Chorus 
   1   2   3   4   + 1   2   3   4   + 1   2   3   4   + 1   2   3   4   
G|-----------------|-----------------|-----------------|-----------------|
D|-----------------|-----------------|-----------------|-----------------|
A|-----------------|-1-1-1-1---------|-----------------|-1-1-1-1-3-3-3-3-|
D|-5-5-5-5-1-1-1-1-|---------3-3-3-3-|-5-5-5-5-1-1-1-1-|-----------------|

   1   2   3   4   + 1   2   3   4   + 1   2   3   4   + 1   2   3   4   
G|-----------------|-----------------|-----------------|-----------------|
D|-----------------|-----------------|-----------------|-----------------|
A|-----------------|---------1-1-1-1-|-----------------|-1-1-1-1---------|
D|-5-5-5-5-1-1-1-1-|-3-3-3-3---------|-5-5-5-5-1-1-1-1-|---------3-3-3-3-|

Bridge 
   1   2   3   4   + 1   2   3   4   + 1   2   3   4   + 1   2   3   4
G|-----------------|-----------------|-----------------|-----------------|
D|-----------------|-----------------|-----------------|-----------------| 
A|-5-5-5-5-5-5-5-5-|-5-5-5-5-5-5-5-5-|-1-1-1-1-1-1-1-1-|-----------------|
D|-----------------|-----------------|-----------------|-3-3-3-3-3-3-3-3-|x2

~Pause~

Chorus 
   1   2   3   4   + 1   2   3   4   + 1   2   3   4   + 1   2   3   4   
G|-----------------|-----------------|-----------------|-----------------|
D|-----------------|-----------------|-----------------|-----------------|
A|-----------------|---------1-1-1-1-|-----------------|-1-1-1-1---------|
D|-5-5-5-5-1-1-1-1-|-3-3-3-3---------|-5-5-5-5-1-1-1-1-|---------3-3-3-3-|

   1   2   3   4   + 1   2   3   4   + 1   2   3   4   + 1   2   3   4   
G|-----------------|-----------------|-----------------|-----------------|
D|-----------------|-----------------|-----------------|-----------------|
A|-----------------|-1-1-1-1---------|-----------------|-1-1-1-1-3-3-3-3-|
D|-5-5-5-5-1-1-1-1-|---------3-3-3-3-|-5-5-5-5-1-1-1-1-|-----------------|

   1   2   3   4   + 1   2   3   4   + 1   2   3   4   + 1   2   3   4   
G|-----------------|-----------------|-----------------|-----------------|
D|-----------------|-----------------|-----------------|-----------------|
A|-----------------|---------1-1-1-1-|-----------------|-1-1-1-1---------|
D|-5-5-5-5-1-1-1-1-|-3-3-3-3---------|-5-5-5-5-1-1-1-1-|---------3-3-3-3-|

   1   2   3   4   + 1   2   3   4   + 1   2   3   4   + 1   2   3   4   
G|-----------------|-----------------|-----------------|-----------------|
D|-----------------|-----------------|-----------------|-----------------|
A|-----------------|-1-1-1-1---------|-----------------|-1-1-1-1-3-3-3-3-|
D|-5-5-5-5-1-1-1-1-|---------3-3-3-3-|-5-5-5-5-1-1-1-1-|-----------------|

   1   2   3   4   + 1   2   3   4   + 1   2   3   4   + 1   2   3   4   + 1
G|-----------------|-----------------|-----------------|-----------------|----|
D|-----------------|-----------------|-----------------|-----------------|----|
A|-----------------|---------1-1-1-1-|-----------------|-1-1-1-1-3-3-3-3-|-5~-|
D|-5-5-5-5-1-1-1-1-|-3-3-3-3---------|-5-5-5-5-1-1-1-1-|-----------------|----|



Real easy song, comment and rate!

Suggest correction
comments
print report bad tab
1 comment total.
-1 reply
kstar22bassist 31 Apr 04, 2010 04:50 PM

I just listened to the song on youtube and tabbed out my own version. I'm not trying to be rude but this tab is off quite a bit. The bass does more in the intro and verses, has some other notes in the prechorus, and has a different chord progression, not just
|--------------------------|
|--------------------------|
|--5--5--3--3--------------|
|--------------3--3--5--5--|
4 times, which it doesn't even do it with these notes. It also does a lot more stuff in the bridge, something fairly close to the prechorus, only on the Low D instead of High D and with an extra note in there. Nice try though!

guest
You may want to rate the tab now too:
select rating
Wanna post a correction for this tab? Suggest correction