Oops, an error
Loading. Please wait.

Favorite Disease Bass Tab

version 2
version 2

Whole song

Interactive

642 views 1 this week
no commentswrite comment
1 2 3 4 5
excellent!
x 2
add to favorites
launch autoscroll
font size
0
reset
guitar tuner
Tab Pro tools
  • play this tab
  • loop segment
  • change instrument
  • show fretboard
  • metronome
Autoscroll
slow
fast
+/-
esc
set tempo
stop
Contributor
Difficulty
Tuning
novice
D A D G B E
(Intro X 2)
G|--------------|--------------|--------|----------|
D|--------2/3-0-|--------2/3---|--------|---3-/-5--|
A|--5-5-5-------|--3-3-3-----3-|--1-1-1-|--1-1/3-3-|
D|--------------|--------------|--------|----------|

(Verse X 2)
G|--------------|--------------|--------|----------|
D|--------2/3-0-|--------2/3---|--------|---3-/-5--|
A|--5-5-5-------|--3-3-3-----3-|--1-1-1-|--1-1/3-3-|
D|--------------|--------------|--------|----------|

(Pre-Chorus X 2) in constant consistent 8th notes
G|---------|---------|----------|----------|
D|---------|55555555-|-33333333-|-88887777-|
A|55555555-|---------|----------|----------|
D|---------|---------|----------|----------|

(Chorus)
G|-----------------|--------|--------|--------|--------|--------|--------|
D|-----------------|--------|--------|--------|--------|--------|--------|
A|--------|1111----|--------|11113333|--------|----3333|--------|11110000|
D|55551111|----3333|55551111|--------|55551111|3333----|55551111|--------|

(Post-Chorus)
G|--------------|--------------|--------|----------|
D|--------2/3-0-|--------2/3---|--------|---3-/-5--|
A|--5-5-5-------|--3-3-3-----3-|--1-1-1-|--1-1/3-3-|
D|--------------|--------------|--------|----------|

(Verse X 2)
G|--------------|--------------|--------|----------|
D|--------2/3-0-|--------2/3---|--------|---3-/-5--|
A|--5-5-5-------|--3-3-3-----3-|--1-1-1-|--1-1/3-3-|
D|--------------|--------------|--------|----------|

(Pre-Chorus X 2) in constant consistent 8th notes
G|---------|---------|----------|----------|
D|---------|55555555-|-33333333-|-88887777-|
A|55555555-|---------|----------|----------|
D|---------|---------|----------|----------|

(Chorus)
G|--------|--------|--------|--------|--------|--------|--------|--------|
D|--------|--------|--------|--------|--------|--------|--------|--------|
A|--------|1111----|--------|11113333|--------|----3333|--------|11110000|
D|55551111|----3333|55551111|--------|55551111|3333----|55551111|--------|

(Bridge) hold 3rd fret on Low D for 4 beats
G|--------|--------|--------|--------|--------|--------|--------|--------|
D|--------|--------|--------|--------|--------|--------|--------|--------|
A|--------|--------|11111111|--------|--------|--------|11111111|--------|
D|55555555|11111111|--------|33334444|55555555|11111111|--------|33333333|3~

(Chorus) DIFFERENT!!!
G|--------|--------|--------|--------|--------|--------|--------|--------|
D|--------|--------|--------|--------|--------|--------|--------|--------|
A|--------|--------|--------|--------|--------|----3333|--------|1111----|
D|--------|--------|--------|--------|55551111|3333----|55551111|----3333|

(Chorus) normal again
G|--------|--------|--------|--------|--------|--------|--------|--------|
D|--------|--------|--------|--------|--------|--------|--------|--------|
A|--------|1111----|--------|11113333|--------|----3333|--------|11110000|
D|55551111|----3333|55551111|--------|55551111|3333----|55551111|--------|

      hold 5th fret on low D for the end
G|--------|--------|--------|--------|--------|--------|--------|--------|
D|--------|--------|--------|--------|--------|--------|--------|--------|
A|--------|1111----|--------|11113333|--------|----3333|--------|11110000|
D|55551111|----3333|55551111|--------|55551111|3333----|55551111|--------|5~
comments
We did not receive enough feedback on this tab! Please rate:
print report bad tab
1 2 3 4 5
I want to post or [tab]
guest
You may want to rate the tab now too:
select rating
Please do not post tabs as comments. Select "correction" instead!