Oops, an error
Loading. Please wait.

Favorite Disease Bass Tab

version 3
version 3

Whole song

Interactive

179 views 1 this week
no commentswrite comment
1 2 3 4 5
2 more votes to show rating
add to favorites
launch autoscroll
font size
0
reset
guitar tuner
Autoscroll
slow
fast
+/-
esc
set tempo
stop
Help us to improve Ultimate-Guitar.com Take our survey!
×
Author
Difficulty
Tuning
novice
D A D G B E
Intro/Verse 1
|-------------------------------------------------------|   
|-------------------------------------------------------|   
|-------------------------------------------------------|   x4
|-12-12-12-12-10-10-10-10-5-5-5-5--5-5-7-7--------------|

Pre-Chorus
|-------------------------------------------------------|                   
|-------------------------------------------------------|   
|-------------------------------------------------------| x2  
|-11111111-55555555-33333333-8888-3333------------------|

Chorus
|------------------------------------------------------------------------------------|
|------------------------------------------------------------------------------------|
|------------------------------------------------------------------------------------|
|-5-5--1-1--8-8--3-3---5-5--1-1--8-8--10-10---5-5--1-1--3-3--8-8---5-5--1-1--8-8--3-3|

Verse 2
|-------------------------------------------------------|   
|-------------------------------------------------------|   
|-------------------------------------------------------|   x3
|-12-12-12-12-10-10-10-10-5-5-5-5--5-5-7-7--------------|

 Pre-Chorus
|-------------------------------------------------------|
|-------------------------------------------------------|    
|-------------------------------------------------------| x2 
|-11111111-55555555-33333333-8888-3333------------------|

Chorus
|------------------------------------------------------------------------------------|
|------------------------------------------------------------------------------------|
|------------------------------------------------------------------------------------|
|-5-5--1-1--8-8--3-3---5-5--1-1--8-8--10-10---5-5--1-1--3-3--8-8---5-5--1-1--8-8--3-3|

Bridge
|------------------------------------------------------------------------------------|
|------------------------------------------------------------------------------------|
|------------------------------------------------------------------------------------|
|-55555555-11111111-88888888-3333-4444-55555555-11111111-88888888-3~~~~~~------------|

(beginning of chorus no bass) Second half of the Chorus
|------------------------------------------------------------------------------------|
|------------------------------------------------------------------------------------|
|------------------------------------------------------------------------------------|
|-5-5--1-1--3-3--8-8--5-5--1-1--8-8--3-3---------------------------------------------|

Chorus (x2)
|------------------------------------------------------------------------------------|
|------------------------------------------------------------------------------------|
|------------------------------------------------------------------------------------|
|-5-5--1-1--8-8--3-3---5-5--1-1--8-8--10-10---5-5--1-1--3-3--8-8---5-5--1-1--8-8--3-3|
Suggest correction
Give kudos to tab author, rate the tab!
1 2 3 4 5
comments
print report bad tab
guest
You may want to rate the tab now too:
select rating
Wanna post a correction for this tab? Suggest correction