Oops, an error
Loading. Please wait.

Fire It Up Bass Tab

version 1
version 1

Whole song

Interactive

5,920 views 1 this week
6 commentsread comments
1 2 3 4 5
x 12
add to favorites
launch autoscroll
font size
0
reset
guitar tuner
Autoscroll
slow
fast
+/-
esc
set tempo
stop
Help us to improve Ultimate-Guitar.com Take our survey!
×
Author
Tuning
D A D G B E
-------------------------------------------------------------------------------
			     FIRE IT UP - Thousand Foot Krutch
-------------------------------------------------------------------------------

Tabbed By : mariewong

Tuning: Drop D




Chorus:
I've got a bad case of turning it up
It's getting cold in here so fire it up
I've got a bad case of turning it up
It's getting cold in here so somebody fire it up

G|----------------------------|
D|----------------------------|
A|----------------------------|  [x4]
D|-0-3~-0-5~-0-3~-0-5~-0-3-0--|



Come on and fire it up

G|------------------------------------------------|
D|------------------------------------------------|
A|-3------------3------------3--------------------|  [x2]
D|---5-3-5-3-0----5-3-5-3-0----5-3-5-3-0-333-55---|



Verse:
I'm in love with the feeling
Of pressure to the ceiling
We come with intention
To face my opposition
Get raw when it's time 
To lay it on the line
To the walls where we're taking it
Let your light shine, like

G|-------------------------------------------|
D|-------------------------------------------|
A|-------------------------------------------|  [x2]
D|-3-0000-8-7-000-7-8-7--3-0000-8-7-000-5-7--|



Break:
Let your light shine, like
Let your light shine



Chorus:
I've got a bad case of turning it up
It's getting cold in here so fire it up
I've got a bad case of turning it up
It's getting cold in here so somebody fire it up

G|----------------------------|
D|----------------------------|
A|----------------------------|  [x4]
D|-0-3~-0-5~-0-3~-0-5~-0-3-0--|



Come on and fire it up

G|------------------------------------------------|
D|------------------------------------------------|
A|-3------------3------------3--------------------|  [x2]
D|---5-3-5-3-0----5-3-5-3-0----5-3-5-3-0-333-55---|



Break:
Take it higher, take it higher
Till the roof is on fire
Take it higher, take it higher
Let's burn it up



1:45
Take it higher, take it higher
Till the roof is on fire
Take it higher, take it higher
Let's burn it up

G|--------------------------------------|
D|--------------------------------------|
A|--------------------------------------|  [x2]
D|-0-3/5-0-5-7-3--0-3/5-0-12-10-12-10\--|



Verse:
We throw down
When it's time for the action
Make it happen, and the sound
That you're feeling like lead
Might just happen 
When you're torn
You might not get a warning or a sign
To the walls where we're taking it
Let your light shine, like

G|-------------------------------------------|
D|-------------------------------------------|
A|-------------------------------------------|  [x2]
D|-3-0000-8-7-000-7-8-7--3-0000-8-7-000-5-7--|



Break:
Let your light shine, like
Let your light shine



Chorus:
I've got a bad case of turning it up
It's getting cold in here so fire it up
I've got a bad case of turning it up
It's getting cold in here so somebody fire it up

G|----------------------------|
D|----------------------------|
A|----------------------------|  [x3]
D|-0-3~-0-5~-0-3~-0-5~-0-3-0--|

G|----------------|
D|----------------|
A|----------------|
D|-0-3~-0-5~-0-3--|



Come on and fire it up
Come on and fire it up
Come on and fire it up

G|------------------------------------------------|
D|------------------------------------------------|
A|-3------------3------------3--------------------|  [x4]
D|---5-3-5-3-0----5-3-5-3-0----5-3-5-3-0-333-55---|





| /  slide up
| \  slide down
| h  hammer-on
| p  pull-off
| ~  vibrato
| +  harmonic
| x  Mute note
===============================================================================
Suggest correction
comments
print report bad tab
6 comments total. Showing first comments.
0 reply
basser92 10 Oct 10, 2009 02:25 PM

This tab saved my butt big time! that a million man!!

0 reply
Lemurs4mangos 1,616 Oct 31, 2009 01:35 AM

I think the chorus is an octave lower...

G|-------------|
D|-------------|
A|-3-----------|
E|---5-3-5-3-0-| etc.

0 reply
SK8nBASS 1,851 Dec 30, 2009 10:27 PM

Good, but lemurs is right, it should be an octave lower and i think the last part of the chorus should be:

G|--------------------------|
D|--------------------------|
A|--3-----------------------|
D|----5-3-5-3-00--333--555--|
otherwise pretty good tab!

guest
You may want to rate the tab now too:
select rating
Wanna post a correction for this tab? Suggest correction