Oops, an error
Loading. Please wait.

Fire It Up Tab

version 1
version 1

Solo

Whole song

Interactive

3,893 views 6 this week
3 commentsread comments
1 2 3 4 5
2 more votes to show rating
add to favorites
launch autoscroll
font size
0
reset
how to read this tab
guitar tuner
Autoscroll
slow
fast
+/-
esc
set tempo
stop
Help us to improve Ultimate-Guitar.com Take our survey!
×
Author
The two Fire It Up tabs didn't have the solo - I'm not any good, but I gave
it a go so 
least you guys have something to work with.
(i.e.Please help with corrections if you can)

Exported from Powertab (I usually tab with it so I can hear what it sounds
like) so if it looks a little weird then that's why XD

Note durations put in.


Q=128
 4/4

    ~~~           ~~~~~~~~    ~~~~~~
    Q   Q   E E E E   +E  E E E +Q   E S S
|-/10--10--10-8-7-8-|-(8)-8-7-5-(5)--5-5-7-|
|-------------------|----------------------|
|-------------------|----------------------|
|-------------------|----------------------|
|-------------------|----------------------|
|-------------------|----------------------|


  S S S S S S S S S S S S S    +S  S S
|-8-7-5-4-5-7-5-4-5-4-3---3b5==(3)r3------|
|-----------------------6------------6----|
|-----------------------------------------|
|-----------------------------------------|
|-----------------------------------------|
|-----------------------------------------|


  S S S S S S S S   E   +Q    E
|-3-------3-------/10--(10)\-10-|
|---6-3-----6-3---/10--(10)\-10-|
|-------5-------5---------------|
|-------------------------------|
|-------------------------------|
|-------------------------------|


                                              TP
   E E  E  E  E  E E  E   E Q      E E Q      E
|-10-8-10------------10-|-8-8b10r======8b10r=10----|
|-10-8-10------------10-|-8-8b10r==================|
|------------10-10-7----|---------10-7-------------|
|---------10------------|--------------------------|
|-----------------------|--------------------------|
|-----------------------|--------------------------|


    TP    TP   TP   TP    TP    TP
   +E     Q    Q    Q     E    +W           W
|-(10)\--12\--13\--15\--/17-|-(17)--------|------*|
|---------------------------|-------------|------*|
|---------------------------|-------------|------*|
|---------------------------|-------------|------*|
|---------------------------|-------------|------*|
|---------------------------|-------------|------*|


Duration Legend (from Powertab)
---------------
W - whole; H - half; Q - quarter; E - 8th; S - 16th; T - 32nd; X - 64th; a - acciaccatura;
+ - note tied to previous; . - note dotted; .. - note double dotted
Uncapitalized letters represent notes that are staccato (1/2 duration)
Irregular groupings are notated above the duration line
Duration letters will always appear directly above the note/fret number it
represents the duration for.
Duration letters with no fret number below them represent rests.
Multi-bar rests are notated in the form Wxn, where n is the number of bars
to rest for. 
Low melody durations appear below the staff
Suggest correction
Give kudos to tab author, rate the tab!
1 2 3 4 5
comments
print report bad tab
3 comments total.
0 reply
kaulthelegend 162 Oct 08, 2009 08:33 AM

Hey man ill help you out and start off the solo for you

---10-------------------------------------------------------------------13b15--13-12-13---12-13-12-10-----10h12h13p12p10----10----------------------------------------------------------------12------------------------------------------------------------------------------------------------------------------------------------------------------------------------------------------------------------------------------

--------------------------------------------------------------------------------------------------------------10/-------------------------12h13p12---10h12--10--------10-----------10/-----------------------------------------------12--12----12--10-------------------------------------------------------------------------------------------------------------------------------------------------------------------------

0 reply
kaulthelegend 162 Oct 29, 2009 01:28 PM

oups i realy srewed up up on that sorry

0 reply
herotosaveme 10 Dec 04, 2009 09:54 PM

I would like note durations please :)

guest
You may want to rate the tab now too:
select rating
Wanna post a correction for this tab? Suggest correction