Oops, an error
Loading. Please wait.

Fire It Up Tab

version 1
version 1

Interactive

18,203 views 12 this week
4 commentsread comments
1 2 3 4 5
accurate
x 5
add to favorites
launch autoscroll
font size
0
reset
how to read this tab
guitar tuner
Tab Pro tools
  • play this tab
  • loop segment
  • change instrument
  • show fretboard
  • metronome
×
Best way to learn
"Fire It Up"
Autoscroll
slow
fast
+/-
esc
set tempo
stop
Contributor
Difficulty
Tuning
intermediate
D A D G B E
--------------------------------------------------------------------
                Fire It Up - Thousand Foot Krutch
--------------------------------------------------------------------

Sweet new TFK song off their upcoming album Welcome to the Masquerade. 
As of right now the album version of this song is not out yet so I am 
going off the live version but you can find a sample of the album version at:
http://media.emicmg.com/5099926478326/Audio/WMA/30sec/100/103.asx

Couldn't find any tabs for this song but I believe these are correct. 
This is my second tab ever.


        Intro
E:-------------------------------------------------|
B:-------------------------------------------------|
G:-------------------------------------------------|x4
D:-0-3-00-5-0-3-0-5-0-3-0--------------------------|
A:-0-3-00-5-0-3-0-5-0-3-0--------------------------|
D:-0-3-00-5-0-3-0-5-0-3-0--------------------------|

E:-------------------------------------------------|
B:-------------------------------------------------|
G:-5-----------5----------5------------------------|x2
D:---5-3-5-3-0--5-3-5-3-0---5-3-5-3-0--3-3-3--5-5-5|
A:---5-3-5-3-0--5-3-5-3-0---5-3-5-3-0--3-3-3--5-5-5|
D:---5-3-5-3-0--5-3-5-3-0---5-3-5-3-0--3-3-3--5-5-5|

        Verse
E:-------------------------------------------------|
B:-------------------------------------------------|
G:-------------------------------------------------|
D:-3-xxxxx-7-xx-xxx-7-0-xxxxx-3-xx-5-7-0-xxxxx-----|
A:-3-xxxxx-7-xx-xxx-7-0-xxxxx-3-xx-5-7-0-xxxxx-----|
D:-3-xxxxx-7-xx-xxx-7-0-xxxxx-3-xx-5-7-0-xxxxx-----|

E:-------------------------------------------------|
B:-------------------------------------------------|
G:-------------------------------------------------|
D:-3-xx-xxx-7-0-xxxxx-3-xx-x-7---------------------|
A:-3-xx-xxx-7-0-xxxxx-3-xx-x-7---------------------|
D:-3-xx-xxx-7-0-xxxxx-3-xx-x-7---------------------|

        Pre-Chorus
E:-------------------------------------------------|
B:-------------------------------------------------|
G:-------------------------------------------------|x2
D:-0-3-00-5-0-3-0-5-0-3-0--------------------------|
A:-0-3-00-5-0-3-0-5-0-3-0--------------------------|
D:-0-3-00-5-0-3-0-5-0-3-0--------------------------|

Chorus (Same as Intro)

        Breakdown
E:-------------------------------------------------|
B:--6-8-6-5-5h6p5----------------------------------|
G:-0-0-0-0-----------------------------------------|x4
D:-------------------------------------------------|
A:-------------------------------------------------|
D:-------------------------------------------------|

Verse
Pre-Chorus
Chorus


Tabbed By Caleb McKee
Tabbed On July 8, 2009
Email: TeamMM3_Xbox@Yahoo.com
Check out my band Fighting Time!
comments
print report bad tab
4 comments total. Showing first comments.
0 reply
canadianeh? wrote on August 23 2009, 08:02 pm

dude, this is pretty awsome, can't believe its already up :D

one thing tho, you could probobly add the breakdown part to the intro, that is what is played first.

Deffinately 5*

0 reply
guitarguy229 wrote on September 14 2009, 01:45 pm

Verse
E:-------------------------------------------------|
B:-------------------------------------------------|
G:-------------------------------------------------|
D:-3-00000-7-00-000-5-0-00000-3-00-5-7-0-00000-----|
A:-3-00000-7-00-000-5-0-00000-3-00-5-7-0-00000-----|
D:-3-00000-7-00-000-5-0-00000-3-00-5-7-0-00000-----|
***** ** *** ***** ** *****
this is how i play the verse and it sounds right so try it this way
*= palm muting

0 reply
kalemlalonde wrote on January 18 2010, 08:44 pm

Intro

----------------------------------------------------------
----------------------------------------------------------
----10---12---10---9---7----------------------------------
--0----0----0----0---0---0--------------------------------
----------------------------------------------------------
----------------------------------------------------------

I want to post or [tab]
guest
You may want to rate the tab now too:
select rating
Please do not post tabs as comments. Select "correction" instead!