Oops, an error
Loading. Please wait.

Fire It Up Bass Tab

version 2
version 2

Whole song

Interactive

1,195 views 1 this week
1 commentread comment
1 2 3 4 5
3 more votes to show rating
add to favorites
launch autoscroll
font size
0
reset
guitar tuner
Autoscroll
slow
fast
+/-
esc
set tempo
stop
Help us to improve Ultimate-Guitar.com Take our survey!
×
No one else seems to want to tab this song. It's my first tab so it might be messed up 
a few parts, but most of it is good.

Intro/Chorus

x = mute
/ = slide

G|----------------------|
D|----------------------| x3
A|----------------------|
D|-0-3-0-5-0-3-0-5-0-3-0|

on the second time you play the intro/chorus part play it like this

G|------------------------|
D|------------------------|
A|------------------------|
D|-0-3-0-5-0-3-0-5-0-xxxxx|

Pre-Verse

G|----------------------------------------|
D|----------------------------------------| x2
A|3---------3----------3------------------|
D|-5-3-5-3-0--5-3-5-3-0--5-3-5-3-0-555-333|

Verse

G|-----------------------------------------------------------------------|
D|-----------------------------------------------------------------------|
A|-----------------------------------------------------------------------|
D|3-xxxxx-7-xx-xxx-7-0-xxxxx-3-xx-5-7-0-xxxxx-3-xx-xxx-7-0-xxxxx-3-xx-x-7|

Pre-Chorus

G|--------------------------------------------------------|
D|-0-3-0-5-0-3-0-5-0-3-0-3-0-5-0-3-0----------------------|
A|--------------------------------------------------------|
D|-----------------------------------0-3-0-5-0-3-0-5-0-3-0|

Play Intro/Chorus

Play Pre-verse

Breakdown (I'm not so sure about this but it sounds right to me so correct it if it 
to be)

The bass starts at 1:45

G|-------------------------------------------------|
D|-------------------------------------------------|
A|-------------------------------------------------|
D|---0-12/-3-5-3--0-12/-9-7-9----0-12/-3-5-3--0-12/|

Play Verse

Play Pre-Chorus

Play Intro/Chorus

Play Pre-verse

This last part during the solo I'm not sure about either so more corrections would be nice

G|----------------------------------------------------|
D|----------------------------------------------------|
A|3---------------------------------------------------|
D|-5-3-5-3-5-0-5-3-0-5-3-5-3--------------------------|
Suggest correction
Give kudos to tab author, rate the tab!
1 2 3 4 5
comments
print report bad tab
1 comment total.
0 reply
joel94 154 Oct 11, 2009 10:13 AM

oh i forgot. you play the last part 4 times

guest
You may want to rate the tab now too:
select rating
Wanna post a correction for this tab? Suggest correction