Oops, an error
Loading. Please wait.

Fire It Up Tab

version 2
version 2

Whole song

Interactive

9,008 views 3 this week
1 commentread comment
1 2 3 4 5
accurate
x 8
add to favorites
launch autoscroll
font size
0
reset
how to read this tab
guitar tuner
Autoscroll
slow
fast
+/-
esc
set tempo
stop
Help us to improve Ultimate-Guitar.com Take our survey!
×
Author
Difficulty
Tuning
intermediate
D A D G B E
-----------------------------------------------------------------------------
                             Fire It Up - Thousand Foot Krutch
-----------------------------------------------------------------------------
Tabbed by:Joshua Schultze
On: 07/28/2009

Tuning:Drop D  D A D G B E

Here's the tab for the new single from Thousand Foot Krutch
from their upcoming release Welcome to the Masquerade.
Coming out September 8th. This is a swett song! Really catchy and rocking!
God Bless and keep Rocking! :)

I don't have the tab for the solo at the end because I'm not that good :P But it's a great solo!

Intro:

E|------------------------------------|
B|------------------------------------|
G|------------------------------------|x4
D|-0-3-0-5-0-3-0-5-0-3-0--------------|
A|-0-3-0-5-0-3-0-5-0-3-0--------------|
D|-0-3-0-5-0-3-0-5-0-3-0--------------|


Main Riff:

e|-----------------------------------------------------------------------|
B|-----------------------------------------------------------------------|
G|-----------------------------------------------------------------------|x2
D|---10-----------------10----------------10-----------------333--55-----|
A|------10-8-10-8----------10-8-10-8---------10-8-10-8-------333--55-----|
E|----------------12-----------------12----------------12----333--55-----|



Verse:

e|----------------------------------------------------|
B|----------------------------------------------------|
G|----------------------------------------------------|x2
D|--000000--3--00000---5---000000--3--00000---5-7-----|
A|--000000--3--00000---5---000000--3--00000---5-7-----|
E|--000000--3--00000---5---000000--3--00000---5-7-----|
  pm---------------pm     pm---------------pm



Pre-Chorus:

E|------------------------------------|
B|------------------------------------|
G|------------------------------------|x2
D|-0-3-0-5-0-3-0-5-0-3-0--------------|
A|-0-3-0-5-0-3-0-5-0-3-0--------------|
D|-0-3-0-5-0-3-0-5-0-3-0--------------|


Chorus:

E|------------------------------------|
B|------------------------------------|
G|------------------------------------|x4
D|-0-3-0-5-0-3-0-5-0-3-0--------------|
A|-0-3-0-5-0-3-0-5-0-3-0--------------|
D|-0-3-0-5-0-3-0-5-0-3-0--------------|


Main Riff:

e|-----------------------------------------------------------------------|
B|-----------------------------------------------------------------------|
G|-----------------------------------------------------------------------|x2
D|---10-----------------10----------------10-----------------333--55-----|
A|------10-8-10-8----------10-8-10-8---------10-8-10-8-------333--55-----|
E|----------------12-----------------12----------------12----333--55-----|


Verse:

e|----------------------------------------------------|
B|----------------------------------------------------|
G|----------------------------------------------------|x2
D|--000000--3--00000---5---000000--3--00000---5-7-----|
A|--000000--3--00000---5---000000--3--00000---5-7-----|
E|--000000--3--00000---5---000000--3--00000---5-7-----|
  pm---------------pm     pm---------------pm


Pre-Chorus:

E|------------------------------------|
B|------------------------------------|
G|------------------------------------|x2
D|-0-3-0-5-0-3-0-5-0-3-0--------------|
A|-0-3-0-5-0-3-0-5-0-3-0--------------|
D|-0-3-0-5-0-3-0-5-0-3-0--------------|

Chorus:

E|------------------------------------|
B|------------------------------------|
G|------------------------------------|x4
D|-0-3-0-5-0-3-0-5-0-3-0--------------|
A|-0-3-0-5-0-3-0-5-0-3-0--------------|
D|-0-3-0-5-0-3-0-5-0-3-0--------------|


Main Riff:

e|-----------------------------------------------------------------------|
B|-----------------------------------------------------------------------|
G|-----------------------------------------------------------------------|x4
D|---10-----------------10----------------10-----------------333--55-----|
A|------10-8-10-8----------10-8-10-8---------10-8-10-8-------333--55-----|
E|----------------12-----------------12----------------12----333--55-----|


Main Riff Alternate:

Here's an alternate way you can play the main riff. I prefer the other way
 but I think both ways are played simultaneously on the song.

E|-------------------------------------------------|
B|-------------------------------------------------|
G|-5-----------5----------5------------------------|x2
D|---5-3-5-3-0--5-3-5-3-0---5-3-5-3-0--3-3-3--5-5-5|
A|---5-3-5-3-0--5-3-5-3-0---5-3-5-3-0--3-3-3--5-5-5|
D|---5-3-5-3-0--5-3-5-3-0---5-3-5-3-0--3-3-3--5-5-5|

Suggest correction
comments
print report bad tab
1 comment total.
0 reply
kalemlalonde 10 wrote on January 18 2010, 08:53 pm

Main Riff

---------------------
---------------------
---------------------
---------------------
--3------------------
-----5-3-5-3-0-------

guest
You may want to rate the tab now too:
select rating
Please do not post tabs as comments. Select "correction" instead!