Oops, an error
Loading. Please wait.

Fire It Up Bass Tab

version 4
version 4

Whole song

Interactive

326 views 1 this week
no commentswrite comment
1 2 3 4 5
please rate
add to favorites
launch autoscroll
font size
0
reset
guitar tuner
Autoscroll
slow
fast
+/-
esc
set tempo
stop
Help us to improve Ultimate-Guitar.com Take our survey!
×
Author
Difficulty
Tuning
novice
D A D G B E
	              Thousand Foot Krutch:Fire It Up
Tabbed By:Jigglez?
Thank You for veiwing my tab...if there is something wrong with it...please comment...thank you

Tuning:drop D
intro...
G|---------------------------------------------------------------------------|
D|---------------------------------------------------------------------------|
A|---------------------------------------------------------------------------|
D|--03~-05~--03~-02~000--(same as right there)x4-----------------------------|
  i gotta bad case of turnin' it up...(every chorus is the same)
G|---------------------------------------------------------------------------|
D|---------------------------------------------------------------------------|
A|---------------------------------------------------------------------------|
D|03----05----03305----03----305~0330503----3-5~-0330503--305-033305---------|
so sombody fire it up...

G|------5~--------5~---------7-5-----------------------------------------------|
D|----------53530------5353-------53530---33355--------------x2----------------|
A|-----------------------------------------------------------------------------|
D|-----------------------------------------------------------------------------|
          i'm in love with the feelin' of pressure to the ceilling
G|---------------------------------------------------------------------------|
D|---------------------------------------------------------------------------|
A|---------------------------------------------------------------------------|
D|3~0000---87---00000---5--3~0000---87-00000-5--3~-0000-87-3~0000-87-000005--|
             let your light shine like...
G|---------------------------------------------------------------------------|
D|---------------------------------------------------------------------------|
A|---------------------------------------------------------------------------|
D|03--03/5--0302000-03--03/5--030200-----------------------------------------|
     chorus...
G|---------------------------------------------------------------------------|
D|---------------------------------------------------------------------------|
A|---------------------------------------------------------------------------|
D|03-05-033--0503--3050330503-305030503-035033-------------------------------|
       fire it up...
G|-----5~-----------5---------7-5~-------------------------------------------|
D|----------53530-------5353--------53530~-33355---------x2------------------|
A|---------------------------------------------------------------------------|
D|---------------------------------------------------------------------------|
         take it higher, take it higher till the roof is on fire take it higher take it 
higher, lets burn it up...
G|---------------------------------------------------------------------------|
D|---------------------------------------------------------------------------|
A|---------------------------------------------------------------------------|
D|0-5h/7-0-3h/5-0-5/7-0-3h/5-xx----x2----------------------------------------|

G|---------------------------------------------------------------------------|
D|---------------------------------------------------------------------------|
A|---------------------------------------------------------------------------|
D|3~00000-87-00000-5~3~0000-87~-000005~-------x2-----------------------------|
      chorus...
G|---------------------------------------------------------------------------|
D|---------------------------------------------------------------------------|
A|---------------------------------------------------------------------------|
D|03~--05~-033503-305-03305-033-305-0-3~-05-03-305033------------------------|
    SOLO!!!!!!
G|-----5~-------5--------75~---------------------------------------------------|
D|--------53530----5353-------53530-33355----x4--------------------------------|
A|--------------------------(fire-it-up!)--------------------------------------|
D|-----------------------------------------------------------------------------|
-|
| /  slide up
| \  slide down
| h  hammer-on
| p  pull-off
| ~  vibrato
| +  harmonic
| x  Mute note
===============================================================================
Suggest correction
Give kudos to tab author, rate the tab!
1 2 3 4 5
comments
print report bad tab
guest
You may want to rate the tab now too:
select rating
Please do not post tabs as comments. Select "correction" instead!