Oops, an error
Loading. Please wait.

Fire It Up Tab

version 4
version 4

Interactive

379 views 1 this week
no commentswrite comment
1 2 3 4 5
please rate
add to favorites
launch autoscroll
font size
0
reset
how to read this tab
guitar tuner
Tab Pro tools
  • play this tab
  • loop segment
  • change instrument
  • show fretboard
  • metronome
×
Best way to learn
"Fire It Up"
Autoscroll
slow
fast
+/-
esc
set tempo
stop
Difficulty
Tuning
novice
D A D G B E
FIRE IT UP - THOUSAND FOOT KRUTCH 
(tabbed by vincent)

Drop D Tuning: D D A D G B E

Intro
-------------------------|
-------------------------|
---10---12---10---9--7---|
-0----0----0----0---0-0--|
-------------------------|
-------------------------|

Chorus
------------------------|
------------------------|
------------------------|
-0-3-0-5-0-3-0-5-0-3-0--|
-0-3-0-5-0-3-0-5-0-3-0--|
-0-3-0-5-0-3-0-5-0-3-0--|

Post-Chorus
-----------------------------------------------|
-----------------------------------------------|
-----------------------------------------------|
------------------------------------3-3-3--5-5-|
-3-----------3---------3------------3-3-3--5-5-|
---5-3-5-3-0--5-3-5-3-0--5-3-5-3-0--3-3-3--5-5-|

Verse
------------------------------------------------------------|
------------------------------------------------------------|
------------------------------------------------------------|
-0--0-0-0-0-8-7--0-0-0-8-7-0--0--0-0-0-0-8-7--0-0-0---5--7--|
-0--0-0-0-0-8-7--0-0-0-8-7-0--0--0-0-0-0-8-7--0-0-0---5--7--|
-0--0-0-0-0-8-7--0-0-0-8-7-0--0--0-0-0-0-8-7--0-0-0---5--7--|
    . . . . . .  . . . . .       . . . . . .  . . .

Pre Chorus
-----------------------|
-----------------------|
-----------------------|
-----------------------|
-----------------------|
-0-3-0-5-0-3-0-5-0-3-0-|

Brigde 
-------------------------|
-------------------------|
---10---12---10---9--7---|
-0----0----0----0---0-0--|
-------------------------|
-------------------------|

Guitar Solo
-12--12--------------------------------------------------------|
-13b-13b--13-12-13--13-12-10-10--10-12-13-12-10----10-12-10----|
------------------------------------------------13----------13-|
---------------------------------------------------------------|
---------------------------------------------------------------|
---------------------------------------------------------------|

-----------------------------------------------------|
-10----------------------------------------------10\-|
----13-12-10--12-13-12-10-12-10------------------10\-|
--------------------------------12-10----------------|
--------------------------------------10-8-----------|
-------------------------------------------12-10-----|
                          .  .  .  .  .  . .  .

-10--8-10------------------------------|
-10--8-10----10-10----10-13-13--13-----|
-------------10-10----10-12-12b-12r-10-|
----------12-------12------------------|
---------------------------------------|
---------------------------------------|

-8---10--12--13--15--17---17--17--17--17--|
-11b-13b-15b-16b-18b-20b--20b-20b-20b-20b-|
------------------------------------------|
------------------------------------------|
------------------------------------------|
------------------------------------------|
comments
We did not receive enough feedback on this tab! Please rate:
print report bad tab
1 2 3 4 5
I want to post or [tab]
guest
You may want to rate the tab now too:
select rating
Please do not post tabs as comments. Select "correction" instead!