Oops, an error
Loading. Please wait.

Fire It Up Tab

version 6
version 6

Whole song

Interactive

888 views 3 this week
no commentswrite comment
1 2 3 4 5
please rate
add to favorites
launch autoscroll
font size
0
reset
how to read this tab
guitar tuner
Autoscroll
slow
fast
+/-
esc
set tempo
stop
Help us to improve Ultimate-Guitar.com Take our survey!
×
Author
Difficulty
Tuning
novice
D A D G B E
Drop D: DAGDBE

Intro 
-------------------|--------------------|-------------------|---------------|
-------------------|--------------------|-------------------|---------------|
--10--12--10--9--7-|--10--12--10--9--6/7|--10--12--10--9--7-|--10--12--10--9|
-0---0---0---0--0-0|-0---0---0---0--0--0|-0---0---0---0--0-0|-0---0---0---0-|
-------------------|--------------------|-------------------|---------------|
-------------------|--------------------|-------------------|---------------|

Chorus 1
------------------------|----------------------------|
------------------------|----------------------------|
------------------------|----------------------------| (x2)
--0-3-0-5-0-3-0-5-0-3-0-|-0-3-0-5-0-3-0-5-0-3-0------|
--0-3-0-5-0-3-0-5-0-3-0-|-0-3-0-5-0-3-0-5-0-3-0------|
--0-3-0-5-0-3-0-5-0-3-0-|-0-3-0-5-0-3-0-5-0-3-0-xxx--|

Post-Chorus 1
-------------------------------------------------|
-------------------------------------------------|
--5-----------5---------5------------------------| (x2)
----5-3-5-3-0--5-3-5-3-0--5-3-5-3-0--3-3-3--5-5--|
--3-----------3---------3------------3-3-3--5-5--|
----5-3-5-3-0--5-3-5-3-0--5-3-5-3-0--3-3-3--5-5--|

Verse 1
---------------------------------------------------------|
---------------------------------------------------------|
---------------------------------------------------------|
-0-0-0-0-0-8-7-0-0-0-7h8--5-0--0-0-0-0-8-7-0-0-0--5-7-0--|
-0-0-0-0-0-8-7-0-0-0-7h8--5-0--0-0-0-0-8-7-0-0-0--5-7-0--|
-0-0-0-0-0-8-7-0-0-0-7h8--5-0--0-0-0-0-8-7-0-0-0--5-7-0--|
   . . . . . . . . . . .       . . . . . . . . .

Verse 1 (Con...)
-----------------------------------------------------|
-----------------------------------------------------|
-----------------------------------------------------|
-0-0-0-0-8-7-0-0-0-7h8--5-0--0-0-0-0-8-7-0-0-0--5-7--|
-0-0-0-0-8-7-0-0-0-7h8--5-0--0-0-0-0-8-7-0-0-0--5-7--|
-0-0-0-0-8-7-0-0-0-7h8--5-0--0-0-0-0-8-7-0-0-0--5-7--|
 . . . . . . . . . . .       . . . . . . . . .

Pre-Chorus 1 [Wah effect]
-------------------------|
-------------------------|
-------------------------| (x2)
-------------------------|
-------------------------|
--0-3-0-5-0-3-0-5-0-3-0--|

Chorus 2 [Leave the mutes (x's) out last time]
------------------------|----------------------------|
------------------------|----------------------------|
------------------------|----------------------------| (x2)
--0-3-0-5-0-3-0-5-0-3-0-|-0-3-0-5-0-3-0-5-0-3-0------|
--0-3-0-5-0-3-0-5-0-3-0-|-0-3-0-5-0-3-0-5-0-3-0------|
--0-3-0-5-0-3-0-5-0-3-0-|-0-3-0-5-0-3-0-5-0-3-0-xxx--|

Post-Chorus 2
-------------------------------------------------|
-------------------------------------------------|
--5-----------5---------5------------------------| (x2)
----5-3-5-3-0--5-3-5-3-0--5-3-5-3-0--3-3-3--5-5--|
--3-----------3---------3------------3-3-3--5-5--|
----5-3-5-3-0--5-3-5-3-0--5-3-5-3-0--3-3-3--5-5--|

Post-Chorus 2 [Con...] gtr comes in 2nd half
-------------------|-----------------|
-------------------|-----------------|
--10--12--10--9--7-|--10--12--10--9--|
-0---0---0---0--0--|-0---0---0---0---|
-------------------|-----------------|
-------------------|-----------------|

Verse 2 {First two mutes come in rights after post chorus}
---------------------------------------------------------------|
---------------------------------------------------------------|
---------------------------------------------------------------|
-0-0-5-0-0-0-0-0-8-7-0-0-0-7h8--5-0--0-0-0-0-8-7-0-0-0--5-7-0--|
-0-0-5-0-0-0-0-0-8-7-0-0-0-7h8--5-0--0-0-0-0-8-7-0-0-0--5-7-0--|
-0-0-5-0-0-0-0-0-8-7-0-0-0-7h8--5-0--0-0-0-0-8-7-0-0-0--5-7-0--|
 . .     . . . . . . . . . . .       . . . . . . . . .

Verse 2 (Con...)
-----------------------------------------------------|
-----------------------------------------------------|
-----------------------------------------------------|
-0-0-0-0-8-7-0-0-0-7h8--5-0--0-0-0-0-8-7-0-0-0--5-7--|
-0-0-0-0-8-7-0-0-0-7h8--5-0--0-0-0-0-8-7-0-0-0--5-7--|
-0-0-0-0-8-7-0-0-0-7h8--5-0--0-0-0-0-8-7-0-0-0--5-7--|
 . . . . . . . . . . .       . . . . . . . . .

Pre-Chorus 2 [Wah effect]
------------------------|-------------------------|
------------------------|-------------------------|
------------------------|-------------------------|
------------------------|--0-3-0-5-0-3-0-5-0-3-0--|
------------------------|--0-3-0-5-0-3-0-5-0-3-0--|
--0-3-0-5-0-3-0-5-0-3-0-|--0-3-0-5-0-3-0-5-0-3-0--|

Chorus 3
------------------------|----------------------------|
------------------------|----------------------------|
------------------------|----------------------------|
--0-3-0-5-0-3-0-5-0-3-0-|-0-3-0-5-0-3-0-5-0-3-0------|
--0-3-0-5-0-3-0-5-0-3-0-|-0-3-0-5-0-3-0-5-0-3-0------|
--0-3-0-5-0-3-0-5-0-3-0-|-0-3-0-5-0-3-0-5-0-3-0-xxx--|

Chorus 3 (Con...)
-------------------------|----------------------------|
-------------------------|----------------------------|
-------------------------|----------------------------|
--0-3-0-5-0-3-0-5-0-3-0-0|-0-3-0-5-0-3-0-5-0-3-0------|
--0-3-0-5-0-3-0-5-0-3-0-0|-0-3-0-5-0-3-0-5-0-3-0------|
--0-3-0-5-0-3-0-5-0-3-0-0|-0-3-0-5-0-3-0-5-0-3-0------|
                      . .

Post-Chorus 3
-------------------------------------------------|
-------------------------------------------------|
--5-----------5---------5------------------------| (x2)
----5-3-5-3-0--5-3-5-3-0--5-3-5-3-0--3-3-3--5-5--|
--3-----------3---------3------------3-3-3--5-5--|
----5-3-5-3-0--5-3-5-3-0--5-3-5-3-0--3-3-3--5-5--|

Rythym Guitar for Solo
-------------------------------|
-------------------------------|
-------------------------------| (x4)
--10-5-3-5-3-5-0--3-5-3-5-3-5--|
--10-5-3-5-3-5-0--3-5-3-5-3-5--|
--10-5-3-5-3-5-0--3-5-3-5-3-5--|

Solo
----------------------------------------------------------------------------|
--15-15-15-13-12-12b-12b-12-10-10--10h12h13p12p10s9h10h12p10p9-10p----------|
------------------------------------------------------------------12p10h12--|
----------------------------------------------------------------------------|
----------------------------------------------------------------------------|
----------------------------------------------------------------------------|

Solo (Con...)
--------------------------------10-------------------------------12~13~15~17|
----------------------------10--10--------------------------13~15~----------|
---10h12p10---------10------10------10---10--10-12-12b-12-10----------------|
------------12p10h12--12p10-------12--12-12--12-----------------------------|
----------------------------------------------------------------------------|
----------------------------------------------------------------------------| 
            .   . . .  .  . 
Suggest correction
Give kudos to tab author, rate the tab!
1 2 3 4 5
comments
print report bad tab
guest
You may want to rate the tab now too:
select rating
Wanna post a correction for this tab? Suggest correction