Oops, an error
Loading. Please wait.

Fire It Up tab

version 7
version 7

Whole song

Interactive

118 views 1 this week
no commentswrite comment
1 2 3 4 5
2 more votes to show rating
add to favorites
×
Save as Personal and add changes to this tab that will be seen only by you. Learn more ›
×
You can save this tab as Personal to edit and correct it or add notes. All changes will be seen only by you. Learn more »
launch autoscroll
font size
0
reset
how to read this tab
guitar tuner
edit
Autoscroll
slow
fast
+/-
esc
set tempo
stop
About this tab version
Take a look for yourself. I cleaned it up. Added all the parts. EVERYTHING is there. And I organized it to the last little detail. Was this info helpful? Yes No
-------------------------------------------------------------------------------
                             Fire It Up - Thousand Foot Krutch
-------------------------------------------------------------------------------
Tabbed by: Glenn Swindler
E-mail: glennswindler@hotmail.com

Tuning: Drop D
Low To High  D A D G B E 

Intro:
Depending on your delay pedal, you might play this first section a bit differently
e|---------------------------------------------------------------------------|
B|---------------------------------------------------------------------------| 
G|----10---12---10---9---7-7-7-----10---12---10---9---6/7--------------------|   
D|--0----0----0----0---0---------0----0----0----0---0------------------------|  
A|---------------------------------------------------------------------------|
D|---------------------------------------------------------------------------|

e|---------------------------------------------------------------------------|
B|---------------------------------------------------------------------------|
G|----10---12---10---9---7-7-7-----10---12---10---9--------------------------|
D|--0----0----0----0---0---------0----0----0----0----------------------------|
A|---------------------------------------------------------------------------|
D|---------------------------------------------------------------------------|

Chorus:
e|---------------------------------------------------------------------------|
B|---------------------------------------------------------------------------|
G|---------------------------------------------------------------------------|
D|--0-3--0-5--0-3--0-5--0-3-0----0-3--0-5--0-3--0-5--0-3-0--x-x--------------| 2x's
A|--0-3--0-5--0-3--0-5--0-3-0----0-3--0-5--0-3--0-5--0-3-0--x-x--------------|
D|--0-3--0-5--0-3--0-5--0-3-0----0-3--0-5--0-3--0-5--0-3-0--x-x--------------|

e|---------------------------------------------------------------------------|
B| --------------------------------------------------------------------------|
G| --------------------------------------------------------------------------|
D| -----------------------------------------3-3-3--5-5-----------------------|  2x's
A| -3-------------3-----------3-------------3-3-3--5-5-----------------------|
D| ----5-3-5-3-0----5-3-5-3-0----5-3-5-3-0--3-3-3--5-5-----------------------|

Verse:
                Fancy licks is the bass guitar
e|---------------------------------------------------------------------------|
B|---------------------------------------------------------------------------|
G|---------------------------------------------------------------------------|
D|--0--0-0-0-0-0-0--0-0-0-0--0---0--0-0-0-0-0-0--0-0-0-5-7-------------------|  2x's
A|--0--0-0-0-0-0-0--0-0-0-0--0---0--0-0-0-0-0-0--0-0-0-5-7-------------------|
D|--0--0-0-0-0-0-0--0-0-0-0--0---0--0-0-0-0-0-0--0-0-0-5-7-------------------|
       * * * * * *  * * * *         * * * * * *  * * *
Pre Chorus:
e|---------------------------------------------------------------------------|
B|---------------------------------------------------------------------------|
G|---------------------------------------------------------------------------|
D|---------------------------------------------------------------------------|
A|---------------------------------------------------------------------------|
D|---0-3-0-5-0-3-0-5-0-3-0------0-3-0-5-0-3-0-5-0-3-0------------------------|

Tag: 
e|---------------------------------------------------------------------------|
B|---------------------------------------------------------------------------| 
G|----10---12---10---9---7-7-7-----10---12---10---9---5/7--------------------|   
D|--0----0----0----0---0---------0----0----0----0---0------------------------|  
A|---------------------------------------------------------------------------|
D|---------------------------------------------------------------------------|

e|---------------------------------------------------------------------------|
B|---------------------------------------------------------------------------|
G|----10---12---10---9---7-7\------10---12---10---9--------------------------|
D|--0----0----0----0---0---------0----0----0----0-------0-0-6----------------|
A|------------------------------------------------------0-0-6----------------|
D|------------------------------------------------------0-0-6----------------|
                                                        * *
Chorus 2: 
e|---------------------------------------------------------------------------|
B|---------------------------------------------------------------------------|
G|---------------------------------------------------------------------------|
D|--0-3--0-5--0-3--0-5--0-3-0----0-3--0-5--0-3--0-5--0-3-0--x-x--------------|
A|--0-3--0-5--0-3--0-5--0-3-0----0-3--0-5--0-3--0-5--0-3-0--x-x--------------|
D|--0-3--0-5--0-3--0-5--0-3-0----0-3--0-5--0-3--0-5--0-3-0--x-x--------------|

e|---------------------------------------------------------------------------|
B|---------------------------------------------------------------------------|
G|---------------------------------------------------------------------------|
D|--0-3--0-5--0-3--0-5--0-3-0-0---0-3--0-5--0-3------------------------------|
A|--0-3--0-5--0-3--0-5--0-3-0-0---0-3--0-5--0-3------------------------------|
D|--0-3--0-5--0-3--0-5--0-3-0-0---0-3--0-5--0-3------------------------------|
                            * *
e|---------------------------------------------------------------------------|
B| --------------------------------------------------------------------------|
G| --------------------------------------------------------------------------|
D| -----------------------------------------3-3-3--5-5-----------------------|  
A| -3-------------3-----------3-------------3-3-3--5-5-----------------------|
D| ----5-3-5-3-0----5-3-5-3-0----5-3-5-3-0--3-3-3--5-5-----------------------|

e|---------------------------------------------------------------------------|
B| --------------------------------------------------------------------------|
G| --------------------------------------------------------------------------|
D| -----------------------------------------3-3-3--5-5-0---------------------|  
A| -3-------------3-----------3-------------3-3-3--5-5-0---------------------|
D| ----5-3-5-3-0----5-3-5-3-0----5-3-5-3-0--3-3-3--5-5-0---------------------|

Outro: (Solo section) 
e|---------------------------------------------------------------------------|
B|---------------------------------------------------------------------------|
G|---------------------------------------------------------------------------|
D|------5-3-5-3-5-0--x-0-5-3-5-3-5-0------5-3-5-3-5-0---0-5-3-5-3-5-7--------| 2 x's
A|--3-3-5-3-5-3-5-0--x-0-5-3-5-3-5-0---3--5-3-5-3-5-0---0-5-3-5-3-5-7--------|
D|------5-3-5-3-5-0--x-0-5-3-5-3-5-0------5-3-5-3-5-0---0-5-3-5-3-5-7--------|
                      
Here is the song order so you can organize! 

Order:
Intro
Chorus
Verse 
Pre Chorus
Chorus
Tag
Verse 
Pre Chorus
Chorus 2
Outro (Solo Section) 

************************************

| /   slide up
| \   slide down
| h   hammer-on
| p   pull-off
| ~   vibrato
| +   harmonic
| x   Mute note
| b   Bend
| pb  Pre-bend
| br  Bend release
| pbr Pre-bend release
| brb Bend release bend

************************************
Suggest correction
Creating personal tab
Creating personal tab
You can edit any tab online and save it as your Personal.

You can edit, replace or remove any tab part or add personal notes – all changes will be seen only by you.

Personal tabs can be accessed anytime from any device, even offline.
Learn more »
Give kudos to tab author, rate the tab!
1 2 3 4 5
comments
print report bad tab
guest
You may want to rate the tab now too:
select rating
Wanna post a correction for this tab? Suggest correction