Oops, an error
Loading. Please wait.

Forward Motion Tab

version 1
version 1

Whole song

Interactive

3,905 views 1 this week
1 commentread comment
1 2 3 4 5
x 3
add to favorites
launch autoscroll
font size
0
reset
how to read this tab
guitar tuner
Autoscroll
slow
fast
+/-
esc
set tempo
stop
Help us to improve Ultimate-Guitar.com Take our survey!
×
Author
Difficulty
Tuning
intermediate
D A D G B E
Great new TFK song, Forward Motion. I'm
not sure if everything is exactly right
but it sounds near perfect to me.
If you find something wrong email me.


     Intro
E:--------------------|
B:-3333---------------|
G:------5555-3-2-3----|x4
D:--------------------|
A:--------------------|
D:--------------------|

E:-------------------------------|
B:-3333--------------3h4p3-3h4p3-|
G:------5555-3-2-3-2-------------|
D:-------------------------------|
A:-------------------------------|
D:-------------------------------|

E:--------------------|
B:-3333---------------|
G:------5555-3-2-3----|x2
D:--------------------|
A:--------------------|
D:--------------------|

E:-------------------------------|
B:-3333---------------------3h4p3|
G:------5555-3-2-3-2--2h3p2------|
D:-------------------------------|
A:-------------------------------|
D:-------------------------------|


     Verse
E:--------------------------|
B:--------------------------|
G:--------------------------|x2
D:-8-xx3-xx5-xx8------------|
A:-8-xx3-xx5-xx8------------|
D:-8-xx3-xx5-xx8------------|


     Pre-Chorus
E:--------------------------|
B:--------------------------|
G:--------------------------|x3
D:-3h5p3s2-2h3h2------------|
A:--------------------------|
D:--------------------------|

E:--------------------------|
B:--------------------------|
G:--------------------------|
D:-3h5p3s2------------------|
A:--------------------------|
D:--------------------------|

Chorus (Same as Intro)
Verse
Pre-Chorus
Chorus

Breakdown

E:-------------------------------------|
B:-------------------------------------|
G:-33335555333232--33335555777575------|
D:-------------------------------------|
A:-------------------------------------|
D:-------------------------------------|

E:-------------------------------------|
B:-----------------------3h4p3---------|
G:-33335555333232--2h3p2---------------|
D:-------------------------------------|
A:-------------------------------------|
D:-------------------------------------|

Piano Pre-Chorus
Chorus



Tabbed By Caleb McKee
Tabbed On July 8, 2009
Email: TeamMM3_Xbox@Yahoo.com
Check out my band Fighting Time!
Suggest correction
Give kudos to tab author, rate the tab!
1 2 3 4 5
comments
print report bad tab
1 comment total.
0 reply
herotosaveme 10 Aug 13, 2009 08:52 PM

Instead of playing 3h4p3 in the intro it should be a bend a 1/2 step. Otherwise everything sounds good as far as I can tell

guest
You may want to rate the tab now too:
select rating
Wanna post a correction for this tab? Suggest correction