Oops, an error
Loading. Please wait.

Give Up The Ghost tab

version 1
version 1

Whole song

772 views 6 this week
6 commentsread comments
1 2 3 4 5
x 5
add to favorites
×
Save as Personal and add changes to this tab that will be seen only by you. Learn more ›
×
You can save this tab as Personal to edit and correct it or add notes. All changes will be seen only by you. Learn more »
launch autoscroll
font size
0
reset
how to read this tab
guitar tuner
edit
Autoscroll
slow
fast
+/-
esc
set tempo
stop
Michael Glodoski
iamnumber12@live.com

Drop B


[Intro]

C#|------------------------------------------------------------------------------------------|
G#|------------------------------------------------------------------------------------------|
E |------------------------------------------------------------------------------------------|
B |-----------------------------------------------------------------------------X-X-3--X-X-5-|
F#|-----------------------------------------------------------------------------X-X-3--X-X-5-|
B |-0-6-0--0-0-0-3-0--0-0-0-6-0--0-0-6-6-6-6-6-6-6-6-6-0--0-0-0-3-0--0-0-0-5-0--X-X-3--X-X-5-|

C#|-----------------------------------------------------------------------------------------------|
G#|-----------------------------------------------------------------------------------------------|
E |-----------------------------------------------------------------------------------------------|
B |-5h6-0--0-0-0-3-0--0-0-0-6-0--0-0-6-6-6-6-6-6-6-6-6-0--0-0-0-3-0--0-0-0-5-0--0-0--X-X-3--X-X-5-|
F#|-5h6-0--0-0-0-3-0--0-0-0-6-0--0-0-6-6-6-6-6-6-6-6-6-0--0-0-0-3-0--0-0-0-5-0--0-0--X-X-3--X-X-5-|
B |-5h6-0--0-0-0-3-0--0-0-0-6-0--0-0-6-6-6-6-6-6-6-6-6-0--0-0-0-3-0--0-0-0-5-0--0-0--X-X-3--X-X-5-|

C#|-----------------------------------------------------------------------------------------------|
G#|-----------------------------------------------------------------------------------------------|
E |----------------------------------7-7-7-7--7--7------------------------------------------------|
B |-0-6-0--0-0-0-3-0--0-0-0-6-0--0-0-6-6-6-6--6--6---6-0--0-0-0-3-0--0-0-0-5-0--0-0--X-X-3--X-X-5-|
F#|-0-6-0--0-0-0-3-0--0-0-0-6-0--0-0-5-5-5-5--5--5---6-0--0-0-0-3-0--0-0-0-5-0--0-0--X-X-3--X-X-5-|
B |-0-6-0--0-0-0-3-0--0-0-0-6-0--0-0-6-6-6-6--6--6---6-0--0-0-0-3-0--0-0-0-5-0--0-0--X-X-3--X-X-5-|


[Verse 1]

C#|------------------------------------------------------------------------------------------|
G#|------------------------------------------------------------------------------------------|
E |------------------------------------------------------------------------------------------|
B |------------------------------------------------------------------------------------------|
F#|------------------------------------------------------------------------------------------|
B |-0-6-0--0-0-0-3-0--0-0-0-6-0--0-0-6-6-6-6-6-6-6-6-6-0--0-0-0-3-0--0-0-0-5-0--X-X-3--X-X-5-|

C#|------------------------------------------------------------------------------------------|
G#|------------------------------------------------------------------------------------------|
E |------------------------------------------------------------------------------------------|
B |-----------------------------------------------------------------------------X-X-3--X-X-5-|
F#|-----------------------------------------------------------------------------X-X-3--X-X-5-|
B |-0-6-0--0-0-0-3-0--0-0-0-6-0--0-0-6-6-6-6-6-6-6-6-6-0--0-0-0-3-0--0-0-0-5-0--X-X-3--X-X-5-|


[Pre-Chorus 1]


C#|----------------------------------------------------------------------|
G#|----------------------------------------------------------------------|
E |----------------------------7-7-7-7--7--7-----------------------------|
B |-3-0--0-0-3-0--0-0-3-0--0-0-6-6-6-6--6--6--3-0--0-0-3-0--0-0-3-0--0-6-|
F#|-3-0--0-0-3-0--0-0-3-0--0-0-5-5-5-5--5--5--3-0--0-0-3-0--0-0-3-0--0-6-|
B |-3-0--0-0-3-0--0-0-3-0--0-0-6-6-6-6--6--6--3-0--0-0-3-0--0-0-3-0--0-6-|


Chorus 1:
C#|---------------------------------------------------------|
G#|---------------------------------------------------------|
E |---------------------------------------------------------|
B |-8-8-8-8-8-8--3--3--3-3-3-3-3--5-5-5-5-5-5--0--0--0--3-5-|
F#|-8-8-8-8-8-8--3--3--3-3-3-3-3--5-5-5-5-5-5--0--0--0--3-5-|
B |-8-8-8-8-8-8--3--3--3-3-3-3-3--5-5-5-5-5-5--0--0--0--3-5-|

C#|-----------------------------------------------------------|
G#|-----------------------------------------------------------|
E |-----------------------------------------------------------|
B |-8-8-8-8-8-8--0--0--0-0-0-0-0--5-5-5-5-5-5-5-6--6--6-6-3-5-|
F#|-8-8-8-8-8-8--0--0--0-0-0-0-0--5-5-5-5-5-5-5-6--6--6-6-3-5-|
B |-8-8-8-8-8-8--0--0--0-0-0-0-0--5-5-5-5-5-5-5-6--6--6-6-3-5-|

C#|---------------------------------------------------------------------------------------------------------|
G#|---------------------------------------------------------------------------------------------------------|
E |---------------------------------------------------------------------------------------------------------|
B |-8-8-8-8-8-8--3--3--3-3-3-3-3--5-5-5-5-5-5--0--0--0--3-5--8-8-8-8-8-8--0--0--0-0-0-0-0--5--5-5--6-6--5-5-|
F#|-8-8-8-8-8-8--3--3--3-3-3-3-3--5-5-5-5-5-5--0--0--0--3-5--8-8-8-8-8-8--0--0--0-0-0-0-0--5--5-5--6-6--5-5-|
B |-8-8-8-8-8-8--3--3--3-3-3-3-3--5-5-5-5-5-5--0--0--0--3-5--8-8-8-8-8-8--0--0--0-0-0-0-0--5--5-5--6-6--5-5-|


Interlude:
C#|-----------------------------------------------------------------------------------------------|
G#|-----------------------------------------------------------------------------------------------|
E |-----------------------------------------------------------------------------------------------|
B |-5h6-0--0-0-0-3-0--0-0-0-6-0--0-0-6-6-6-6-6-6-6-6-6-0--0-0-0-3-0--0-0-0-5-0--0-0--X-X-3--X-X-5-|
F#|-5h6-0--0-0-0-3-0--0-0-0-6-0--0-0-6-6-6-6-6-6-6-6-6-0--0-0-0-3-0--0-0-0-5-0--0-0--X-X-3--X-X-5-|
B |-5h6-0--0-0-0-3-0--0-0-0-6-0--0-0-6-6-6-6-6-6-6-6-6-0--0-0-0-3-0--0-0-0-5-0--0-0--X-X-3--X-X-5-|


Verse 2:
C#|------------------------------------------------------------------------------------------|
G#|------------------------------------------------------------------------------------------|
E |------------------------------------------------------------------------------------------|
B |------------------------------------------------------------------------------------------|
F#|------------------------------------------------------------------------------------------|
B |-0-6-0--0-0-0-3-0--0-0-0-6-0--0-0-6-6-6-6-6-6-6-6-6-0--0-0-0-3-0--0-0-0-5-0--X-X-3--X-X-5-|

C#|------------------------------------------------------------------------------------------|
G#|------------------------------------------------------------------------------------------|
E |------------------------------------------------------------------------------------------|
B |-----------------------------------------------------------------------------X-X-3--X-X-5-|
F#|-----------------------------------------------------------------------------X-X-3--X-X-5-|
B |-0-6-0--0-0-0-3-0--0-0-0-6-0--0-0-6-6-6-6-6-6-6-6-6-0--0-0-0-3-0--0-0-0-5-0--X-X-3--X-X-5-|


Pre-Chorus 2:
C#|----------------------------------------------------------------------|
G#|----------------------------------------------------------------------|
E |----------------------------7-7-7-7--7--7-----------------------------|
B |-3-0--0-0-3-0--0-0-3-0--0-0-6-6-6-6--6--6--3-0--0-0-3-0--0-0-3-0--0-6-|
F#|-3-0--0-0-3-0--0-0-3-0--0-0-5-5-5-5--5--5--3-0--0-0-3-0--0-0-3-0--0-6-|
B |-3-0--0-0-3-0--0-0-3-0--0-0-6-6-6-6--6--6--3-0--0-0-3-0--0-0-3-0--0-6-|

Chorus 2:
C#|---------------------------------------------------------|
G#|---------------------------------------------------------|
E |---------------------------------------------------------|
B |-8-8-8-8-8-8--3--3--3-3-3-3-3--5-5-5-5-5-5--0--0--0--3-5-|
F#|-8-8-8-8-8-8--3--3--3-3-3-3-3--5-5-5-5-5-5--0--0--0--3-5-|
B |-8-8-8-8-8-8--3--3--3-3-3-3-3--5-5-5-5-5-5--0--0--0--3-5-|

C#|-----------------------------------------------------------|
G#|-----------------------------------------------------------|
E |-----------------------------------------------------------|
B |-8-8-8-8-8-8--0--0--0-0-0-0-0--5-5-5-5-5-5-5-6--6--6-6-3-5-|
F#|-8-8-8-8-8-8--0--0--0-0-0-0-0--5-5-5-5-5-5-5-6--6--6-6-3-5-|
B |-8-8-8-8-8-8--0--0--0-0-0-0-0--5-5-5-5-5-5-5-6--6--6-6-3-5-|

C#|---------------------------------------------------------------------------------------------------------|
G#|---------------------------------------------------------------------------------------------------------|
E |---------------------------------------------------------------------------------------------------------|
B |-8-8-8-8-8-8--3--3--3-3-3-3-3--5-5-5-5-5-5--0--0--0--3-5--8-8-8-8-8-8--0--0--0-0-0-0-0--5--5-5--6-6--5-5-|
F#|-8-8-8-8-8-8--3--3--3-3-3-3-3--5-5-5-5-5-5--0--0--0--3-5--8-8-8-8-8-8--0--0--0-0-0-0-0--5--5-5--6-6--5-5-|
B |-8-8-8-8-8-8--3--3--3-3-3-3-3--5-5-5-5-5-5--0--0--0--3-5--8-8-8-8-8-8--0--0--0-0-0-0-0--5--5-5--6-6--5-5-|


Interlude:
C#|-------------------------------------------------------------------------------------------------------|
G#|-------------------------------------------------------------------------------------------------------|
E |-------------------------------------------------------------------------------------------------------|
B |-6-5-3-0--0-0-0--0-0-0--0-3-5-6-5-3-0--0-0-0-0-0-0-0-0-3-5-6-5-3-0--0-0--0-0-0--0-0--0-0-0-3-5-6-5-3-0-|
F#|-6-5-3-0--0-0-0--0-0-0--0-3-5-6-5-3-0--0-0-0-0-0-0-0-0-3-5-6-5-3-0--0-0--0-0-0--0-0--0-0-0-3-5-6-5-3-0-|
B |-6-5-3-0--0-0-0--0-0-0--0-3-5-6-5-3-0--0-0-0-0-0-0-0-0-3-5-6-5-3-0--0-0--0-0-0--0-0--0-0-0-3-5-6-5-3-0-|
             *      *                     *     * * *                  * *  *      * *  *

C#|----------------------------------|
G#|----------------------------------|
E |----------------------------------|
B |----------------------------------|
F#|----------------------------------|
B |-0-0--0-0-0--0-0--0-0-0-3-5-6-5-3-|
    * *  *      * *  *


Bridge: 


C#|-----------------------------------------------|
G#|-----------------------------------------------|
E |-----------------------------------------------|
B |-----12--8----3----5-7-----12---8------10--5-7-|
F#|---12---8----3----5------12----8-----10---5----|
B |-12----8----3----5-----12-----8----10----5-----|

C#|-----------------------------------------------|
G#|-----------------------------------------------|
E |-----------------------------------------------|
B |-----12--8----3----5-7-----12---8------10--5-7-|
F#|---12---8----3----5------12----8-----10---5----|
B |-12----8----3----5-----12-----8----10----5-----|

C#|------------------------------------------------------------------------------------|
G#|------------------------------------------------------------------------------------|
E |------------------------------------------------------------------------------------|
B |-12-12-12-12--8-8-8-8--3-3-3-3--5-5-5-5--12-12-12-12--8-8-8-8--10-10-10-10--5-5-5-5-|
F#|-12-12-12-12--8-8-8-8--3-3-3-3--5-5-5-5--12-12-12-12--8-8-8-8--10-10-10-10--5-5-5-5-|
B |-12-12-12-12--8-8-8-8--3-3-3-3--5-5-5-5--12-12-12-12--8-8-8-8--10-10-10-10--5-5-5-5-|
    *   *  *  *  * * * *  * * * *  * * * *  *   *  *  *  * * * *   *  *  *  *  * * * *
C#|-------------------------------------------------------------------------|
G#|-------------------------------------------------------------------------|
E |-------------------------------------------------------------------------|
B |-12-12-12-12--8-8-8-8--3-3-3--5-5-5-5--12-12-12-12--10-10-10-10--5-5-5-5-|
F#|-12-12-12-12--8-8-8-8--3-3-3--5-5-5-5--12-12-12-12--10-10-10-10--5-5-5-5-|
B |-12-12-12-12--8-8-8-8--3-3-3--5-5-5-5--12-12-12-12--10-10-10-10--5-5-5-5-|
     *  *  *  *  * * * *  * * *  * * * *   *  *  *  

Chorus 2:
C#|---------------------------------------------------------|
G#|---------------------------------------------------------|
E |---------------------------------------------------------|
B |-8-8-8-8-8-8--3--3--3-3-3-3-3--5-5-5-5-5-5--0--0--0--3-5-|
F#|-8-8-8-8-8-8--3--3--3-3-3-3-3--5-5-5-5-5-5--0--0--0--3-5-|
B |-8-8-8-8-8-8--3--3--3-3-3-3-3--5-5-5-5-5-5--0--0--0--3-5-|

C#|-----------------------------------------------------------|
G#|-----------------------------------------------------------|
E |-----------------------------------------------------------|
B |-8-8-8-8-8-8--0--0--0-0-0-0-0--5-5-5-5-5-5-5-6--6--6-6-3-5-|
F#|-8-8-8-8-8-8--0--0--0-0-0-0-0--5-5-5-5-5-5-5-6--6--6-6-3-5-|
B |-8-8-8-8-8-8--0--0--0-0-0-0-0--5-5-5-5-5-5-5-6--6--6-6-3-5-|

C#|---------------------------------------------------------------------------------------------------------|
G#|---------------------------------------------------------------------------------------------------------|
E |---------------------------------------------------------------------------------------------------------|
B |-8-8-8-8-8-8--3--3--3-3-3-3-3--5-5-5-5-5-5--0--0--0--3-5--8-8-8-8-8-8--0--0--0-0-0-0-0--5--5-5--6-6--5-5-|
F#|-8-8-8-8-8-8--3--3--3-3-3-3-3--5-5-5-5-5-5--0--0--0--3-5--8-8-8-8-8-8--0--0--0-0-0-0-0--5--5-5--6-6--5-5-|
B |-8-8-8-8-8-8--3--3--3-3-3-3-3--5-5-5-5-5-5--0--0--0--3-5--8-8-8-8-8-8--0--0--0-0-0-0-0--5--5-5--6-6--5-5-|

Outro:
C#|-----------------------------------------------------------------------------------------------|
G#|-----------------------------------------------------------------------------------------------|
E |-----------------------------------------------------------------------------------------------|
B |-5h6-0--0-0-0-3-0--0-0-0-6-0--0-0-6-6-6-6-6-6-6-6-6-0--0-0-0-3-0--0-0-0-5-0--0-0--X-X-3--X-X-5-|
F#|-5h6-0--0-0-0-3-0--0-0-0-6-0--0-0-6-6-6-6-6-6-6-6-6-0--0-0-0-3-0--0-0-0-5-0--0-0--X-X-3--X-X-5-|
B |-5h6-0--0-0-0-3-0--0-0-0-6-0--0-0-6-6-6-6-6-6-6-6-6-0--0-0-0-3-0--0-0-0-5-0--0-0--X-X-3--X-X-5-|


            
            
Suggest correction
Creating personal tab
Creating personal tab
You can edit any tab online and save it as your Personal.

You can edit, replace or remove any tab part or add personal notes – all changes will be seen only by you.

Personal tabs can be accessed anytime from any device, even offline.
Learn more »
comments
print report bad tab
6 comments total. Showing first comments.
0 reply
Adrenaline16 62 Jul 15, 2016 07:47 PM

It should be 3-0-00-3-0-00-3-0-0-666666 not what you did sounds nothing like the song but the bridge is good

0 reply
Adrenaline16 62 Jul 15, 2016 07:48 PM

I just don't like it - no special reason

0 reply
Adrenaline16 62 Jul 15, 2016 07:48 PM

I just don't like it - no special reason

guest
You may want to rate the tab now too:
select rating
Wanna post a correction for this tab? Suggest correction