Oops, an error
Loading. Please wait.

Hand Gernade Bass Tab

603 views 1 this week
no commentswrite comment
1 2 3 4 5
please rate
add to favorites
launch autoscroll
font size
0
reset
guitar tuner
Autoscroll
slow
fast
+/-
esc
set tempo
stop
Help us to improve Ultimate-Guitar.com Take our survey!
×
Difficulty
advanced
I dont know all of the intro but here is the verses and chorus
for more info, email me at clayton_lehman@hotmail.com

WARNING: MUST HAVE FAST FINGERS!!!!

4 string

Verses

G|------------------------------|
D|-0-3-00-----------------------|
A|--------0-1-1-----------------|
E|------------------------------|


Chorus

G|-------------------------------|
D|-0------0----0------0-----0----|
A|----3-2------------------------|
E|----------1-3---4-3---0-1---1--|


This is the way it is and sounds but if you dont have a 5 string bass use the top one

5 string

Verses

G|------------------------------|
D|-0-3-00-----------------------|
A|--------0-1-1-----------------|
E|------------------------------|
B|------------------------------|

Chorus

G|------------------------------|
D|------------------------------|
A|----3-2-----------------------|
E|----------1-3---4-3---0-1---1-|
B|--3-----3-----3-----3-----3---|
Suggest correction
Give kudos to tab author, rate the tab!
1 2 3 4 5
comments
print report bad tab
guest
You may want to rate the tab now too:
select rating
Wanna post a correction for this tab? Suggest correction