Oops, an error
Loading. Please wait.

Hand Grenade Bass Tab

version 1
version 1

Whole song

1,449 views 1 this week
1 commentread comment
1 2 3 4 5
please rate
add to favorites
launch autoscroll
font size
0
reset
guitar tuner
Tab Pro tools
  • play this tab
  • loop segment
  • change instrument
  • show fretboard
  • metronome
×
Best way to learn
"Hand Grenade"
Autoscroll
slow
fast
+/-
esc
set tempo
stop
Contributor
Difficulty
Tuning
novice
D A D G B E
Song: Hand Grenade
Album: The Art Of Breaking
Artist: Thosand Foot Krutch

Ok ive been looking for this tab forever and finally gave up and did it myself and here 
is

(Intro)
G--------------------------------------------|
D--------------------------------------------|
A--------------------------------------------|
D-121212-777-8-0-3-5-6-5------121212--101010-|

G--------------------------------------------|
D--------------------------------------------|
A--------------------------------------------|
D-0-6-5-3-0--121212-777-8-0-3-5-6-3--121212--|

G------------------|
D------------------|
A--------11^^------|
D-101010-----------|

(Verse)
       Use this riff untill the guitar comes in
G--------------------------------------------|
D---3----------------------------------------|
A-5---5p3-0h1-1------------------------------|
D--------------------------------------------|

       THEN use this until pre chorus
G--------------------------------------------|
D---3----------------------------------------|
A-5---5p3-0h1-1------------------------------|
D---------------0h3-3------------------------|

(Pre-Chorus)
G--------------------------------------------|
D--------------------------------------------|
A--------------------------------------------|
D-8-8-8-8-5-5-5-5-5--------------------------|

(Chorus)
G--------------------------------------------|
D--------------------------------------------|
A--------------------------------------------|
D-0-10-9-0-3-5-0-6-5-0-2-3-0-3---------------|

(Bridge)
G--------------------------------------------|
D--------------------------------------------|
A--------------------------------------------|
D-88-77-00-00-0-101010-----------------------|

Thats it enjoy
comments
We did not receive enough feedback on this tab! Please rate:
print report bad tab
1 2 3 4 5
1 comment total.
0 reply
fenderbassdude wrote on February 14 2008, 06:03 pm

hey good job way better than the other guy
only prob is the intro its basically right
5 stars though

I want to post or [tab]
guest
You may want to rate the tab now too:
select rating
Please do not post tabs as comments. Select "correction" instead!