Oops, an error
Loading. Please wait.

Hand Grenade Bass Tab

version 2
version 2

Whole song

939 views 3 this week
1 commentread comment
1 2 3 4 5
accurate
x 4
add to favorites
launch autoscroll
font size
0
reset
guitar tuner
Autoscroll
slow
fast
+/-
esc
set tempo
stop
Help us to improve Ultimate-Guitar.com Take our survey!
×
Author
Tuning
D A D G B E
-------------------------------------------------------------------------------
		    Hand Grenade - Thousand Foot Krutch
-------------------------------------------------------------------------------

Tuning: Drop D

Intro
G|----------------------------------------------------------------|
D|----------------------------------------------------------------|
A|----------------------------------------------------------------|
D|--121212\777/8888---0-3-5-6-5--121212\777/10101010---0-3-5-6-3--|

G|-------------------------------------------------------------|
D|-------------------------------------------------------------|
A|-------------------------------------------------------------|
D|--121212\777/8888---0-3-5-6-5---121212\777/10101010---03355--|

Verse
G|----------------|
D|-----3----------| x3   
A|--5-----5301-1--|
D|----------------|

G|---------------------------------------|
D|-----3------------------3--------------|
A|--5-----5301-1/8-8---5-----5301-1------|
D|----------------------------------0-3--|

G|---------------------------------------|
D|-----3------------------3--------------|
A|--5-----5301-1/888---5-----5301-1------|
D|----------------------------------0-3--|

G|--------------------------------------------------------|
D|-----3--------------------------------------------------|
A|--5-----5301-1------------------------------------------|
D|---------------333333--8-8-8-8-8-8-8-8-5-5-5-5-5-5-5-5--|

Chorus
G|--------------------------------|
D|--------------------------------| x8
A|--------------------------------| 	Easier to play on high D,
D|--0-10-9-0-3-5-0-6-5-0-2-3-0-3--|	 sounds better on low!

Pre-Verse
G|-----------------------------------|
D|-----------------------------------|
A|-----------------------------------|
D|--8-8-8-8-8-8-8-8-5-5-5-5-5-5-5-5--|

G|------------------------------------------------------------|
D|------------------------------------------------------------|
A|------------------------------------------------------------|
D|--121212\777/8888---0-3-5-6-5--121212\777/10101010---03355--|

Verse
G|----------------|
D|-----3----------| x3   
A|--5-----5301-1--|
D|----------------|

G|---------------------------------------|
D|-----3------------------3--------------|
A|--5-----5301-1/8-8---5-----5301-1------|
D|----------------------------------0-3--|

G|---------------------------------------|
D|-----3------------------3--------------|
A|--5-----5301-1/888---5-----5301-1------|
D|----------------------------------0-3--|

G|--------------------------------------------------------|
D|-----3--------------------------------------------------|
A|--5-----5301-1------------------------------------------|
D|---------------333333--8-8-8-8-8-8-8-8-5-5-5-5-5-5-5-5--|

Chorus
G|--------------------------------|
D|--------------------------------| x8
A|--------------------------------| 	
D|--0-10-9-0-3-5-0-6-5-0-2-3-0-3--|	

Pre-Verse
G|-----------------------------------|
D|-----------------------------------|
A|-----------------------------------|
D|--8-8-8-8-8-8-8-8-5-5-5-5-5-5-5-5--|

Bridge
G|----------------------------|
D|----------------------------| x4
A|----------------------------|
D|--88---77---00--00--101010--|

G|-----------------------------------|
D|-----------------------------------|
A|-----------------------------------|
E|--8-8-8-8-8-8-8-8-5-5-5-5-5-5-5-5--|

Bass Solo/Outro
G|--------------------------------|
D|--------------------------------| x30
A|--------------------------------| 	
D|--0-10-9-0-3-5-0-6-5-0-2-3-0-3--|	


| /  slide up
| \  slide down
| h  hammer-on
| p  pull-off
| ~  let note ring
| +  harmonic
| x  Mute note
===============================================================================

Suggest correction
comments
print report bad tab
1 comment total.
0 reply
Haloquadratum 110 wrote on October 5 2013, 02:09 pm

I don't think your chorus is correct. This is what I hear:

G|----------------------------------|
D|----------------------------------|
A|----------------------------------|
D|--0-10-9-0-3-5-6-0-5-3-0-2-3-0-3--|

You tabbed 14 notes where he actually plays 15, so I added the 3 after the second 5. I also swapped the 6 and the 0 around because I think it sounds better.

What do you think?

guest
You may want to rate the tab now too:
select rating
Wanna post a correction for this tab? Suggest correction