Oops, an error
Loading. Please wait.

Heat Miser Tab

version 2
version 2

Whole song

13 views 1 this week
no commentswrite comment
1 2 3 4 5
3 more votes to show rating
add to favorites
launch autoscroll
font size
0
reset
how to read this tab
guitar tuner
Autoscroll
slow
fast
+/-
esc
set tempo
stop
Help us to improve Ultimate-Guitar.com Take our survey!
×
Author
Difficulty
Tuning
novice
D A D G B E
E|--------------|----------|-----------|-----------|
B|--------------|----------|-----------|-----------|
G|--------------|----------|-----------|-----------|
D|--------------|----------|-----------|-----------|     4x
A|--------------|----------|-----------|-----------|
D|-7-7-7-7-7-10-|-10-7-7-10|-10-7-7-10-|-10-7-7-10-|

E|--------------|-----------|-----------|-----------|
B|--------------|-----------|-----------|-----------|
G|--------------|-----------|-----------|-----------|
D|-7-7-7-7-7-10-|-10-7-7-10-|-10-7-7-10-|-10-7-7-10-|    2x
A|-7-7-7-7-7-10-|-10-7-7-10-|-10-7-7-10-|-10-7-7-10-|
D|-7-7-7-7-7-10-|-10-7-7-10-|-10-7-7-10-|-10-7-7-10-|

E|--------------|----------|-----------|-----------|
B|--------------|----------|-----------|-----------|
G|--------------|----------|-----------|-----------|
D|--------------|----------|-----------|-----------|     2x
A|--------------|----------|-----------|-----------|
D|-7-7-7-7-7-10-|-10-7-7-10|-10-7-7-10-|-10-7-7-10-|

[Break]

E|--------------|-----------|-----------|-----------|
B|--------------|-----------|-----------|-----------|
G|--------------|-----------|-----------|-----------|
D|-7-7-7-7-7-10-|-10-7-7-10-|-10-7-7-10-|-10-7-7-10-|    4x
A|-7-7-7-7-7-10-|-10-7-7-10-|-10-7-7-10-|-10-7-7-10-|
D|-7-7-7-7-7-10-|-10-7-7-10-|-10-7-7-10-|-10-7-7-10-|

E|-------------|
B|-------------|
G|-------------|
D|-------------|    4x
A|---7-5-5-3-0-|
D|-7-----------|

E|----------------|
B|----------------|
G|----------------|
D|-7-14-12-12-10-7|   8x
A|-7-14-12-12-10-7|
D|-7-14-12-12-10-7|

E|--------------|----------|-----------|-----------|
B|--------------|----------|-----------|-----------|
G|--------------|----------|-----------|-----------|
D|--------------|----------|-----------|-----------|     2x
A|--------------|----------|-----------|-----------|
D|-7-7-7-7-7-10-|-10-7-7-10|-10-7-7-10-|-10-7-7-10-|

E|--------------|-----------|-----------|-----------|
B|--------------|-----------|-----------|-----------|
G|--------------|-----------|-----------|-----------|
D|-7-7-7-7-7-10-|-10-7-7-10-|-10-7-7-10-|-10-7-7-10-|    4x
A|-7-7-7-7-7-10-|-10-7-7-10-|-10-7-7-10-|-10-7-7-10-|
D|-7-7-7-7-7-10-|-10-7-7-10-|-10-7-7-10-|-10-7-7-10-|

E|--------------|----------|-----------|-----------|
B|--------------|----------|-----------|-----------|
G|--------------|----------|-----------|-----------|
D|--------------|----------|-----------|-----------|     2x
A|--------------|----------|-----------|-----------|
D|-7-7-7-7-7-10-|-10-7-7-10|-10-7-7-10-|-10-7-7-10-|

[Break]

E|--------------|-----------|-----------|-----------|
B|--------------|-----------|-----------|-----------|
G|--------------|-----------|-----------|-----------|
D|-7-7-7-7-7-10-|-10-7-7-10-|-10-7-7-10-|-10-7-7-10-|    2x
A|-7-7-7-7-7-10-|-10-7-7-10-|-10-7-7-10-|-10-7-7-10-|
D|-7-7-7-7-7-10-|-10-7-7-10-|-10-7-7-10-|-10-7-7-10-|
Suggest correction
Give kudos to tab author, rate the tab!
1 2 3 4 5
comments
print report bad tab
guest
You may want to rate the tab now too:
select rating
Wanna post a correction for this tab? Suggest correction