Oops, an error
Loading. Please wait.

Hit The Floor Bass Tab

1,234 views 1 this week
2 commentsread comments
1 2 3 4 5
x 4
add to favorites
launch autoscroll
font size
0
reset
guitar tuner
Autoscroll
slow
fast
+/-
esc
set tempo
stop
Help us to improve Ultimate-Guitar.com Take our survey!
×
Author
Fun song to play.. it tests your fingering out. Enjoy!


No base in the intro.

  Verse 1: 
G|--------9--------9-00---0-7--------7--------9--------9-00---0-7--------7---|
D|--7---7---7-----------------50---0---57---7---7-----------------50---0---0-|
A|-----------8---8-------------------------------8---8-----------------------|
E|---------------------------------------------------------------------------|

  Pre-chorus 1:
G|----------------------9-------7-7-9------9-00-----7-------------------------|
D|3-------5-------7---7---710---------------------5---57-777-777-777-777-7-7-7|
A|-----------------------------------8---8------------------------------------|
E|----------------------------------------------------------------------------|

  Chorus:
G|-------------------------------------------|
D|--0h2-0h2-0h2-0h2---5h7-5h7-5h7-5/10-10-10-|
A|-------------------------------------------|
E|-------------------------------------------|

G|-----------------------------------5-5-----|
D|--0h2-0h2-0h2-0h2---5h7-5h7-5h7-55---------|
A|-------------------------------------------|
E|-------------------------------------------|
  Play entire thing twice for one chorus

  Post-chorus:
G|------9-------9-------9-------9-------7-------7--------------|
D|--7777-7777777-777----------------5555-5555555-5550~---------|
A|------------------8888-8888888-888---------------------------|
E|-------------------------------------------------------------|

Verse 2:
No base for a while. Then play

G|--------9--------9-00---0-7--------7--|
D|--7-7-7---7-----------------50---0---0|
A|-----------8-8-8----------------------|
E|--------------------------------------|

  Pre-chorus 2:
G|-------9-00-----7---------------------------|
D|--------------5---57-777-777-777-777-7-7-7--|
A|-8---8--------------------------------------|
E|--------------------------------------------|

Chorus

  Bridge:
G|--7------------------------------|
D|----------8---7-7-5-------3---2-2|
A|---------------------------------|x2
E|---------------------------------|

G|--7------------------------------|
D|----------8---7---5-------3---2--|
A|---------------------------------|x2
E|---------------------------------|
Second time play some soft "pumping" beetween the main tones.

  Pre-chorus 3:
G|-------------------------------------------|
D|--2222222222222222777777771010101010101010-|
A|-------------------------------------------|
E|-------------------------------------------|

Chorus x2

  Outro:
G|-------------------|
D|--0h2-0h2-0h2-0h2--|
A|-------------------|
E|-------------------|
Suggest correction
comments
print report bad tab
2 comments total.
+1 reply
fenderbassdude 76 Feb 14, 2008 06:10 PM

good job the tempos confusing sometimes
5 stars

-1 reply
SK8nBASS 1,851 Aug 20, 2009 01:54 PM

wow... drop D, and spell BASS right! supposed to be on low D not a high D!

guest
You may want to rate the tab now too:
select rating
Wanna post a correction for this tab? Suggest correction