Oops, an error
Loading. Please wait.

Honest Tab

127 views 6 this week
no commentswrite comment
1 2 3 4 5
1 last vote to show rating
add to favorites
launch autoscroll
font size
0
reset
how to read this tab
guitar tuner
Autoscroll
slow
fast
+/-
esc
set tempo
stop
Help us to improve Ultimate-Guitar.com Take our survey!
×
Author
Difficulty
intermediate
About this tab version
You have to hear out the Strumming yourself. Was this info helpful? Yes No
[Intro]

e|---------------------------------------------------------------------------|
B|-----------0-1-0------------0-3-0-------3---3-0----------------------------|
G|------0----------------0------------------------------2---2-0--------------|
D|----2---2------------4---4------------0---0---------0---0------------------|
A|--3----------------5----------------2-------------2------------------------|
E|---------------------------------------------------------------------------|

e|---------------------------------------------------------------------------|
B|-----------0-1-0------------3-5-0-------3---3-0----------------------------|
G|------0----------------0------------------------------2---2-0--------------|
D|----2---2------------4---4------------0---0---------0---0------------------|
A|--3----------------5----------------2-------------2------------------------|
E|---------------------------------------------------------------------------|


[Verse]

e|---------------------------------------------------------------------------|   
B|---------------------------------------------------------------------------|   
G|------0-----0-----------0-----0--------------------------------------------|         
D|----2-----2----2------4-----4-----4-------5-----5-----5----4-----4---------|      
A|--3-----3----3-----/5-----5-----5-------7-----7-----7----7-----7-----7-----|    
E|--------------------------------------0-----0-----0----0-----0-----0-------|   

e|---------------------------------------------------------------------------|   
B|---------------------------------------------------------------------------|   
G|------0-----0-----------0-----0--------------------------------------------|         
D|----2-----2----2------4-----4-----4-------5-----5-----5----4-----4---------|      
A|--3-----3----3-----/5-----5-----5-------7-----7-----7----7-----7-----7-----|    
E|--------------------------------------0-----0-----0----0-----0-----0-------| 

[After Verse]  

e|---------------------------------------------------------------------------|
B|-----------0-1-0------------0-3-0-------3---3-0----------------------------|
G|------0----------------0------------------------------2---2-0--------------|
D|----2---2------------4---4------------0---0---------0---0------------------|
A|--3----------------5----------------2-------------2------------------------|
E|---------------------------------------------------------------------------|

e|---------------------------------------------------------------------------|
B|-----------0-1-0------------3-5-0-------3---3-0----------------------------|
G|------0----------------0------------------------------2---2-0--------------|
D|----2---2------------4---4------------0---0---------0---0------------------|
A|--3----------------5----------------2-------------2------------------------|
E|---------------------------------------------------------------------------|


[Prechorus]
     G     D     Em    C 
e|---2-----2-----0-----0-----------------------------------------------------|   
B|---2-----3-----0-----1-----------------------------------------------------|    
G|---0-----2-----0-----0-----------------------------------------------------|     
D|---0-----0-----2-----2-----------------------------------------------------|
A|---3-----X-----2-----3-----------------------------------------------------|    
E|---2-----X-----0-----X-----------------------------------------------------|   

[Chorus] (Chords) (figure out the strumming yourself XD)

     G     D     Em    C 
e|---2-----2-----0-----0-----------------------------------------------------|  
B|---2-----3-----0-----1-----------------------------------------------------|    
G|---0-----2-----0-----0-----------------------------------------------------|     
D|---0-----0-----2-----2-----------------------------------------------------|
A|---3-----X-----2-----3-----------------------------------------------------|    
E|---2-----X-----0-----X-----------------------------------------------------|   

     G     D     Em    C 
e|---2-----2-----0-----0-----------------------------------------------------|  
B|---2-----3-----0-----1-----------------------------------------------------|    
G|---0-----2-----0-----0-----------------------------------------------------|     
D|---0-----0-----2-----2-----------------------------------------------------|
A|---3-----X-----2-----3-----------------------------------------------------|    
E|---2-----X-----0-----X-----------------------------------------------------|   

     G     D    Bm     C
e|---2-----2-----2-----0-----------------------------------------------------|   
B|---2-----3-----3-----1-----------------------------------------------------|    
G|---0-----2-----4-----0-----------------------------------------------------|     
D|---0-----0-----4-----2-----------------------------------------------------|
A|---3-----X-----2-----3-----------------------------------------------------|    
E|---2-----X-----X-----X-----------------------------------------------------|   

     G     D    Bm     C
e|---2-----2-----2-----0-----------------------------------------------------|   
B|---2-----3-----3-----1-----------------------------------------------------|    
G|---0-----2-----4-----0-----------------------------------------------------|     
D|---0-----0-----4-----2-----------------------------------------------------|
A|---3-----X-----2-----3-----------------------------------------------------|    
E|---2-----X-----X-----X-----------------------------------------------------|   

[Bridge]

e|---------------------------------------------------------------------------|
B|--0-----0-----0---0-----0-----0--------------------------------------------|
G|----0-----0-----0---0-----0-----0------------------------------------------|
D|------2-----2---------2-----2----------------------------------------------|
A|---------------------------------------------------------------------------|
E|---------------------------------------------------------------------------|



************************************

| x   Dead note
| g   Grace note
| (n) Ghost note
| h   Hammer-on
| p   Pull-off
| r   Release
| >   Accented note
| t   Tapping
| b   Bend
| br  Bend release
| pb  Pre-bend
| pbr Pre-bend release
| /   Slide up
| \   Slide down
| ~   Vibrato
| s   Slap
| P   Pop
| PM  Palm mute
| TR  Trill
| N   Tremolo

************************************
Suggest correction
Give kudos to tab author, rate the tab!
1 2 3 4 5
comments
print report bad tab
guest
You may want to rate the tab now too:
select rating
Wanna post a correction for this tab? Suggest correction