Oops, an error
Loading. Please wait.

Inhuman Bass Tab

1,117 views 3 this week
2 commentsread comments
1 2 3 4 5
1 last vote to show rating
add to favorites
launch autoscroll
font size
0
reset
guitar tuner
Autoscroll
slow
fast
+/-
esc
set tempo
stop
Help us to improve Ultimate-Guitar.com Take our survey!
×
Author
Tuning
D A D G B E
-------------------------------------------------------------------------------
			Inhuman - Thousand Foot Krutch     
-------------------------------------------------------------------------------

Tuning: Drop D

Intro - no bass

Verse
G|---------------------|
D|---------------------| x2
A|---------------------|
D|--2-55-2-32-2-55-27--|

Pre-Chorus
G|-----------------------------------------------------------------|
D|-----------------------------------------------------------------|
A|-----------------------------------------------------------------|
D|--2-2-2-2-2-2-2-2-0-0-0-0-0-0-0-0-5-5-5-5-5-5-5-5-0-0-0-0-0-0-0--|

Chorus
G|-----------------------------------------------------------------|
D|-----------------------------------------------------------------| x2
A|-----------------------------------------------------------------|
D|--7-7-7-7-7-7-7-7-0-0-0-0-0-0-0-0-5-5-5-5-5-5-5-5-0-0-0-0-0-0-0--|

~Break~

Verse
G|-------------------------------------|
D|-------------------------------------| 
A|-------------------------------------|
D|--2-55-2-32-2-55-27-22-xx-x-22-xx-x--|

G|---------------------|
D|---------------------| x2
A|---------------------|
D|--2-55-2-32-2-55-27--|

Pre-Chorus
G|-----------------------------------------------------------------|
D|-----------------------------------------------------------------|
A|-----------------------------------------------------------------|
D|--2-2-2-2-2-2-2-2-0-0-0-0-0-0-0-0-5-5-5-5-5-5-5-5-0-0-0-0-0-0-0--|

Chorus
G|-----------------------------------------------------------------|
D|-----------------------------------------------------------------| x2
A|-----------------------------------------------------------------|
D|--7-7-7-7-7-7-7-7-0-0-0-0-0-0-0-0-5-5-5-5-5-5-5-5-0-0-0-0-0-0-0--|

~Bridge (no bass)~

Final Chorus
G|-----------------------------------------------------------------|
D|-----------------------------------------------------------------| x4
A|-----------------------------------------------------------------|
D|--7-7-7-7-7-7-7-7-0-0-0-0-0-0-0-0-5-5-5-5-5-5-5-5-0-0-0-0-0-0-0--|

As requested by joel94, easy song, think for most part it’s right! 
Have fun...

| /  slide up
| \  slide down
| h  hammer-on
| p  pull-off
| ~  let note ring
| +  harmonic
| x  Mute note
===============================================================================

Suggest correction
Give kudos to tab author, rate the tab!
1 2 3 4 5
comments
print report bad tab
2 comments total.
0 reply
thunderhawk 535 Mar 08, 2010 10:26 PM

it says drop D and i know it is. but its kinda confusing cuz u put it in standard on the actually tab. just so you know u may not have noticed.

0 reply
SK8nBASS 1,851 Mar 09, 2010 10:42 PM

My bad, I'll fix!

guest
You may want to rate the tab now too:
select rating
Wanna post a correction for this tab? Suggest correction