Oops, an error
Loading. Please wait.

Inhuman Tab

version 1
version 1

Whole song

2,684 views 1 this week
no commentswrite comment
1 2 3 4 5
accurate
x 3
add to favorites
launch autoscroll
font size
0
reset
how to read this tab
guitar tuner
Tab Pro tools
  • play this tab
  • loop segment
  • change instrument
  • show fretboard
  • metronome
Autoscroll
slow
fast
+/-
esc
set tempo
stop
Contributor
Tuning
D A D G B E
-----------------------------------------------------------------------
                     Inhuman – Thousand Foot Krutch
-----------------------------------------------------------------------
Tabbed by:Spike46

Tuning: Drop D (DADGBe)

Didn’t see any tabs for this so I thought I’d have a go
This has been tabbed by ear by me with some help from my guitar teacher
So please rate and hope this is a decent tab for an awesome song

Intro: Guitar 1
e|------------------------------------------------------|
B|------------------------------------------------------|
G|------------------------------------------------------|
D|------------------------------------------------------|
A|-0-3-0-2—(x4)--0-5-0-2--------0-3-0-2-(x3)--0-5-0-2---|
D|-0-3-0-2-------0-5-0-2--------0-3-0-2-------0-5-0-2---|

Intro: Guitar 2
e|--------------------------------------------------------------------|
B|--------------------------------------------------------------------|
G|--------------------------------------------------------------------|
D|--------------------------------------------------------------------|
A|-12-15-12-14--------12-17-12-14-------12-15-12-14-------12-17-12-14-|
D|-12-15-12-14--(x4)--12-17-12-14-------12-15-12-14-(x3)--12-17-12-14-|

Verse 1: Guitar 1  1st~~~~~~~~~~~~~~~~~~~~~~~~|2nd~~~~~~~|
e|-----------------|-------------<12>-<12>----|----------|
B|O----------------|-------------<12>-<12>---O|----------|
G|-----------------|-------------<12>-<12>----|----------|
D|---2-5-02-5-2-25-|02-5---------<12>-<12>----|-0-23-----|
A|O--2-5-02-5-2-25-|02-5---------------------O|-0-23-----|
D|---2-5-02-5-2-25-|02-5----------------------|-0-23-----|

Verse 1: Guitar 2
(same as Guitar 1)

Pre-Chorus: Guitar 1
e|--------------------------------------------------------------------|
B|--------------------------------------------------------------------|
G|--------------------------------------------------------------------|
D|-14-14-141414-14141414-12-12-121212-12121212-5-5-555-5555-0-0-033-55|
A|-14-14-141414-14141414-12-12-121212-12121212-5-5-555-5555-0-0-033-55|
D|-14-14-141414-14141414-12-12-121212-12121212-5-5-555-5555-0-0-033-55|

Pre-Chorus: Guitar 2
(same as Guitar 1)

Chorus: Guitar 1       (16)=(x16)
e|----------------------------------------------------|
B|----------------------------------------------------|
G|----------------------------------------------------|
D|-7------3------5------0------7------5------3------0-|
A|-7-(16)-3-(16)-5-(16)-0-(16)-7-(16)-5-(16)-3-(16)-0-|
D|-7------3------5------0------7------5------3------0-|

Chorus: Guitar 2       (16)=(x16)
e|----------------------------------------------------------|
B|----------------------------------------------------------|
G|-14------10------7------12------14------7------10------14-|
D|-14-(16)-10-(16)-7-(16)-12-(16)-14-(16)-7-(16)-10-(16)-14-|
A|-12------8-------5------10------12------5------8-------12-|
D|----------------------------------------------------------|

Post-Chorus: Guitar 1
e|--------------------------------------------|
B|--------------------------------------------|
G|--------------------------------------------|
D|--------------------------------------------|
A|-0-3-0-2-(x3)-0-5-0-2--0-3-0-2-(x3)-0-5-0-2-|
D|-0-3-0-2------0-5-0-2--0-3-0-2------0-5-0-2-|

Post-Chorus: Guitar 2
(not entirely sure what is played here but it has something to do with these notes, if 
listen close enough I’m sure you could work out the rhythm)
e|------------|
B|------------|
G|--9b-9b--7--|
D|------------|
A|------------|
D|------------|

Verse 2: Guitar 1  1st~~~~~~~~~~~|2nd,3rd~~~~~~~~~~~~~~~~|4th~~~~~~~|
e|-----------------|-------------|-----------<12>-<12>---|----------|
B|O----------------|------------O|-----------<12>-<12>--O|----------|
G|-----------------|-------------|-----------<12>-<12>---|----------|
D|---2-5-02-5-2-25-|-02-5-2---2--|-02-5-2----<12>-<12>---|-0-23-----|
A|O--2-5-02-5-2-25-|-02-5-2---2-O|-02-5-2---------------O|-0-23-----|
D|---2-5-02-5-2-25-|-02-5-2---2--|-02-5-2----------------|-0-23-----|

Verse 2: Guitar 2
(same as Guitar 1)

Pre-Chorus: Guitar 1
e|--------------------------------------------------------------------|
B|--------------------------------------------------------------------|
G|--------------------------------------------------------------------|
D|-14-14-141414-14141414-12-12-121212-12121212-5-5-555-5555-0-0-033-55|
A|-14-14-141414-14141414-12-12-121212-12121212-5-5-555-5555-0-0-033-55|
D|-14-14-141414-14141414-12-12-121212-12121212-5-5-555-5555-0-0-033-55|

Pre-Chorus: Guitar 2
(not entirely sure what is played here but it has something to do with these notes, if 
listen close enough I’m sure you could work out the rhythm)
e|------------|
B|------------|
G|--9b-9b--7--|
D|------------|
A|------------|
D|------------|

Chorus: Guitar 1       (16)=(x16)
e|----------------------------------------------------|
B|----------------------------------------------------|
G|----------------------------------------------------|
D|-7------3------5------0------7------5------3------0-|
A|-7-(16)-3-(16)-5-(16)-0-(16)-7-(16)-5-(16)-3-(16)-0-|
D|-7------3------5------0------7------5------3------0-|

Chorus: Guitar 2
e|---------------------------------------------------------------|
B|---------------------------------------------------------------|
G|-14------10------7------12------14------7------10------14------|
D|-14-(16)-10-(16)-7-(16)-12-(16)-14-(16)-7-(16)-10-(16)-14-(16)-|
A|-12------8-------5------10------12------5------8-------12------|
D|---------------------------------------------------------------|

Bridge: Guitar 1
(Alternate picking)
e|--------------------------|
B|--------------------------|
G|-12-----------5-----------|
D|-12-(x20ish)--5-(x20ish)--|(x3)
A|-10-----------3-----------|
D|--------------------------|

Bridge: Guitar 2
(same as Guitar 1)

Chorus: Guitar 1       (16)=(x16)
e|----------------------------------------------------|
B|----------------------------------------------------|
G|----------------------------------------------------|
D|-7------3------5------0------7------5------3------0-|
A|-7-(16)-3-(16)-5-(16)-0-(16)-7-(16)-5-(16)-3-(16)-0-|
D|-7------3------5------0------7------5------3------0-|

Chorus: Guitar 2
e|---------------------------------------------------------------|
B|---------------------------------------------------------------|
G|-14------10------7------12------14------7------10------14------|
D|-14-(16)-10-(16)-7-(16)-12-(16)-14-(16)-7-(16)-10-(16)-14-(16)-|
A|-12------8-------5------10------12------5------8-------12------|
D|---------------------------------------------------------------|
comments
We did not receive enough feedback on this tab! Please rate:
print report bad tab
1 2 3 4 5
I want to post or [tab]
guest
You may want to rate the tab now too:
select rating
Please do not post tabs as comments. Select "correction" instead!