Oops, an error
Loading. Please wait.

Inhuman Tab

version 2
version 2

Whole song

2,161 views 1 this week
1 commentread comment
1 2 3 4 5
excellent!
x 4
add to favorites
launch autoscroll
font size
0
reset
how to read this tab
guitar tuner
Autoscroll
slow
fast
+/-
esc
set tempo
stop
Help us to improve Ultimate-Guitar.com Take our survey!
×
Author
hairguitar 1,093
Inhuman-Thousand Foot Krutch

Guitar 1 is drop D and so is guitar 2

There is already a good tab but I just wanted to improve on it a bit

Intro:  Play riff A 4 times, then Riff B once.  Then, riff A 3 times and Riff B once 
but the second
time around don’t play the five power chords on Riff B.  Both guitars play this.
  Riff A              Riff B
  |------------------||--------------------|
        P.M.--------|        P.M.----------|
e|-------------------|---------------------|
B|-------------------|---------------------|
G|-------------------|---------------------|
D|-0-3-0-2-----------|-0-5-0-0-------------|
A|---------2-2-2-2-2-|---------2-2-2-2-2---|
D|---------2-2-2-2-2-|---------2-2-2-2-2---|

Verse: *is a natural harmonic
e|--------------------------|---x-12*12*----|--------------------------|
B|--------------------------|---x-12*12*----|--------------------------|
G|--------------------------|---------------|--------------------------|
D|--------------------------|---------------|--------------------------|
A|-2-5--0-2-5--2-2-5--0-2-5-|---------------|-2-5--0-2-3--2-2-5--0-2-3-|
D|-2-5--0-2-5--2-2-5--0-2-5-|---------------|-2-5--0-2-3--2-2-5--0-2-3-|

Pre-Chorus
Both guitars
e|-----------------------|-----------------------|-----------------------|-----------------------|
B|-----------------------|-----------------------|-----------------------|-----------------------|
G|-----------------------|-----------------------|-----------------------|-----------------------|
D|-----------------------|-----------------------|-----------------------|-----------------------|
A|2--2--2--2--2--2--2--2-|0--0--0--0--0--0--0--0-|5--5--5--5--5--5--5--5-|0--0--0--0--3--3--5--5-|
D|2--2--2--2--2--2--2--2-|0--0--0--0--0--0--0--0-|5--5--5--5--5--5--5--5-|0--0--0--0--3--3--5--5-|

Chorus
Guitar 1
e|---------------------------------|--------------------------------|
B|---------------------------------|--------------------------------|
G|---------------------------------|--------------------------------|
D|---------------------------------|--------------------------------|
A|-7-7-7-7-7-7-7-7-7-7-7-7-7-7-7-7-|3-3-3-3-3-3-3-3-3-3-3-3-3-3-3-3-|
D|-7-7-7-7-7-7-7-7-7-7-7-7-7-7-7-7-|3-3-3-3-3-3-3-3-3-3-3-3-3-3-3-3-|

Guitar 2
e|-5-5-5-5-5-5-5-5-5-5-5-5-5-5-5-5-|5-5-5-5-5-5-5-5-5-5-5-5-5-5-5-5-|
B|-5-5-5-5-5-5-5-5-5-5-5-5-5-5-5-5-|5-5-5-5-5-5-5-5-5-5-5-5-5-5-5-5-|
G|---------------------------------|--------------------------------|
D|---------------------------------|--------------------------------|
A|---------------------------------|--------------------------------|
D|---------------------------------|--------------------------------|

Guitar 1
e|---------------------------------|--------------------------------|
B|---------------------------------|--------------------------------|
G|---------------------------------|--------------------------------|
D|---------------------------------|--------------------------------|
A|-0-0-0-0-0-0-0-0-0-0-0-0-0-0-0-0-|5-5-5-5-5-5-5-5-5-5-5-5-5-5-5-5-|
D|-0-0-0-0-0-0-0-0-0-0-0-0-0-0-0-0-|5-5-5-5-5-5-5-5-5-5-5-5-5-5-5-5-|

Guitar 2
e|-5-5-5-5-5-5-5-5-5-5-5-5-5-5-5-5-|3-3-3-3-3-3-3-3-3-3-3-3-3-3-3-3-|
B|-5-5-5-5-5-5-5-5-5-5-5-5-5-5-5-5-|3-3-3-3-3-3-3-3-3-3-3-3-3-3-3-3-|
G|---------------------------------|--------------------------------|
D|---------------------------------|--------------------------------|
A|---------------------------------|--------------------------------|
D|---------------------------------|--------------------------------|

Guitar 1: This is the second time around and it is basically the same except for the end 
guitar 2 where the chords change a bit.
e|---------------------------------|--------------------------------|
B|---------------------------------|--------------------------------|
G|---------------------------------|--------------------------------|
D|---------------------------------|--------------------------------|
A|-7-7-7-7-7-7-7-7-7-7-7-7-7-7-7-7-|3-3-3-3-3-3-3-3-3-3-3-3-3-3-3-3-|
D|-7-7-7-7-7-7-7-7-7-7-7-7-7-7-7-7-|3-3-3-3-3-3-3-3-3-3-3-3-3-3-3-3-|

Guitar 2
e|-5-5-5-5-5-5-5-5-5-5-5-5-5-5-5-5-|5-5-5-5-5-5-5-5-5-5-5-5-5-5-5-5-|
B|-5-5-5-5-5-5-5-5-5-5-5-5-5-5-5-5-|5-5-5-5-5-5-5-5-5-5-5-5-5-5-5-5-|
G|---------------------------------|--------------------------------|
D|---------------------------------|--------------------------------|
A|---------------------------------|--------------------------------|
D|---------------------------------|--------------------------------|

Guitar 1
e|---------------------------------|--------------------------------|
B|---------------------------------|--------------------------------|
G|---------------------------------|--------------------------------|
D|---------------------------------|--------------------------------|
A|-0-0-0-0-0-0-0-0-0-0-0-0-0-0-0-0-|5-5-5-5-5-5-5-5-5-5-5-5-5-5-5-5-|
D|-0-0-0-0-0-0-0-0-0-0-0-0-0-0-0-0-|5-5-5-5-5-5-5-5-5-5-5-5-5-5-5-5-|

Guitar 2
e|-3-3-3-3-3-3-3-3-3-3-3-3-3-3-3-3-|7-7-7-7-7-7-7-7-7-7-7-7-7-7-7-7-|
B|-3-3-3-3-3-3-3-3-3-3-3-3-3-3-3-3-|3-3-3-3-3-3-3-3-3-3-3-3-3-3-3-3-|
G|---------------------------------|--------------------------------|
D|---------------------------------|--------------------------------|
A|---------------------------------|--------------------------------|
D|---------------------------------|--------------------------------|

Interlude:  This part is the intro with the little fill displayed here
Guitar 1 plays the intro guitar 2 plays this.  Play it four times
e|----------------------------|
B|----------------------------|
G|-9-9-9-9b10r-7-9-9b10r-7-7-9|
D|----------------------------|
A|----------------------------|
D|----------------------------|

Verse: *is a natural harmonic
e|--------------------------|-----------------------|--------------------------|
B|--------------------------|-----------------------|--------------------------|
G|--------------------------|-----------------------|--------------------------|
D|--------------------------|-----------------------|--------------------------|
A|-2-5--0-2-5--2-2-5--0-2-5-|-2-0-0--0-0-2-0-0--0-0-|-2-5--0-2-3--2-2-5--0-2-3-|
D|-2-5--0-2-5--2-2-5--0-2-5-|-2-0-0--0-0-2-0-0--0-0-|-2-5--0-2-3--2-2-5--0-2-3-|

e|-------x12*-12*--|--------------------------|-------------|
B|-------x12*-12*--|--------------------------|-------------|
G|-----------------|--------------------------|-------------|
D|-----------------|--------------------------|-------------|
A|-----------------|-2-5--0-2-5--2-2-5--0-2-5-|-------------|
D|-----------------|-2-5--0-2-5--2-2-5--0-2-5-|-------------|

Pre-Chorus 2:  This is only the fill, guitar 2 plays it over the original power chords 
the first pre-chorus. Play this four times
e|-------------------|
B|-------------------|
G|-9-7-9-7-9-7-9b10r-|
D|-------------------|
A|-------------------|
D|-------------------|

Bridge: Play this with both guitars. Play it 4 times
  P.M-----------------------------------------------------------------|
e|---------------------------------|----------------------------------|
B|---------------------------------|----------------------------------|
G|---------------------------------|----------------------------------|
D|---------------------------------|5-5-5-5-5-5-5-5-5-5-5-5-5-5-5-5---|
A|-3-3-3-3-3-3-3-3-3-3-3-3-3-3-3-3-|3-3-3-3-3-3-3-3-3-3-3-3-3-3-3-3---|
D|-3-3-3-3-3-3-3-3-3-3-3-3-3-3-3-3-|----------------------------------|

There you go!
Listen to the song to find out when to play the pre-Choruses and bridges and such.
Suggest correction new What's this?
You can suggest a correction to this tab. Community and Mods will review your correction and vote to approve or reject it.
comments
print report bad tab
1 comment total.
0 reply
horsy911 110 wrote on June 4 2009, 11:32 pm

good work everything sounds perfect by my ear good work!

guest
You may want to rate the tab now too:
select rating
Please do not post tabs as comments. Select "correction" instead!