Oops, an error
Loading. Please wait.

Last Words Bass Tab

version 1
version 1

Whole song

2,206 views 1 this week
no commentswrite comment
1 2 3 4 5
1 last vote to show rating
add to favorites
launch autoscroll
font size
0
reset
guitar tuner
Autoscroll
slow
fast
+/-
esc
set tempo
stop
Help us to improve Ultimate-Guitar.com Take our survey!
×
Author
Intro:
G|----------11-11---------------------9---|
D|--9-9-9-9-------9-11-11-12-12-7-7-7---7-| 2x
A|----------------------------------------|
E|----------------------------------------|

Verse 1:
G|--------6-6---------7-6-----------|
D|------------------------7---------| 4x
A|----------------9~--------0-~-7-0-|
E|--7-7-----------------------------|

G|--------6-6--------------------|
D|-------------------------------| 4x
A|----------------9~--------0-~--|
E|--7-7--------------------------|

Chorus:
G|---------------------------------------------|
D|--------------------4-4----------------------|
A|------2---------2-2-----2-2-2----------------|
E|--2-~-------------------------3-~-0----------|

G|-------------------------------|
D|--2-2-2-2-4-4-5-4-~------------|
A|--------------------2----------|
E|-------------------------------|

G|-------------------------------------|
D|--4---5---2------------7---7---7-7---|
A|-------------------------------------|
E|-------------------------------------|

Link: Intro again 3x, 4th time is the verse riff

Verse 2: same as verse 1

Chorus, same again

Bridge:
Nothing for the first half of the bridge, then
G|----------------------------|
D|--9-~-~-------7-~-~-----7-~-| 
A|--------7-~-~-------9-~-----|
E|----------------------------|

G|--4-4-------------2-2---------2-2----|
D|----------2-2-------------4-4--------|
A|-------------------------------------|
E|-------------------------------------|

G|--4-4-------------2-2-~-----------2--2--|
D|----------2-2-------------4-~-----------|
A|----------------------------------------|
E|----------------------------------------|

Chorus 2x, then the link to finish off
Suggest correction
Give kudos to tab author, rate the tab!
1 2 3 4 5
comments
print report bad tab
guest
You may want to rate the tab now too:
select rating
Wanna post a correction for this tab? Suggest correction