Oops, an error
Loading. Please wait.

Last Words Bass Tab

version 2
version 2

Whole song

467 views 1 this week
no commentswrite comment
1 2 3 4 5
please rate
add to favorites
launch autoscroll
font size
0
reset
guitar tuner
Autoscroll
slow
fast
+/-
esc
set tempo
stop
Help us to improve Ultimate-Guitar.com Take our survey!
×
Author
-------------------------------------------------------------------------------
	Last Words - Thousand Foot Krutch
-------------------------------------------------------------------------------

Tuning: Standard

  Intro
G|-----1111-----------------1111--------------|
D|-9999----9-11-12\777999999----9-11-12\77799-|
A|--------------------------------------------|
E|--------------------------------------------|
  Verse
G|-------6-6---------6h7p6--------------6-6---------6h7p6-------|
D|------------------------7p0----------------------------7p0----|
A|---------------9~----------0h7----------------9~----------0h7-|
E|-7-7----------------------------7-7---------------------------|x2
  Pre-Chorus
G|-------6-6------------------------------6-6------------------|
D|-------------------------------------------------------------|
A|---------------9~--------0~---------------------9~--------0~-|
E|-7-7------------------------------7-7------------------------|x2
  Chorus
G|--------------------------------------------|
D|--------------------------------------------|
A|-9\2---9999999-10\2---0000000---2/9--9-7-0~-|
E|--------------------------------------------|
  Post-Chorus
G|-----1111-----------------1111-----------------1111--------------|
D|-9999----9-11-12\777999999----9-11-12\777999999----9-11-12\77799-|
A|-----------------------------------------------------------------|
E|-----------------------------------------------------------------|
  Verse
G|-------6-6---------6h7p6--------------6-6---------6h7p6-------|
D|------------------------7p0----------------------------7p0----|
A|---------------9~----------0h7----------------9~----------0h7-|
E|-7-7----------------------------7-7---------------------------|x2
  Pre-Chorus
G|-------6-6-|R|-------6-6-----------------------------6-6-----------------|
D|-----------|E|-----------------------------------------------------------|
A|-----------|S|---------------9~-------0~---------------------9~-------0~-|
E|-7-7-------|T|-7-7-----------------------------7-7-----------------------|x2
  Chorus
G|--------------------------------------------|
D|--------------------------------------------|
A|-9\2---9999999-10\2---0000000---2/9--9-7-0~-|
E|--------------------------------------------|x2

~Rest Once Then...~

  Bridge
G|-------------------------------------------------------------------------|
D|-------------------------------------------------------------------------|
A|--9~----7~----0~----2~----22----77----00----99----22----77----000----9~--|
E|-------------------------------------------------------------------------|
  Chorus
G|--------| |--------------------------------------------|
D|--------| |--------------------------------------------|
A|--0--0--| |-9\2---9999999--10\2--0000000---2/9--9-7-0~-|
E|--------| |--------------------------------------------|x2
  Outro
G|-----1111-----------------1111-----------------1111--------------|
D|-9999----9-11-12\777999999----9-11-12\777999999----9-11-12\77799-|
A|-----------------------------------------------------------------|
E|-----------------------------------------------------------------|

G|--------6-6---------6h7p6---------|
D|-------------------------7p0------| 
A|----------------9~----------0h7p0-|
E|--7-7-----------------------------|

REVISED


| /  slide up
| \  slide down
| h  hammer-on
| p  pull-off
| ~  let note ring
| +  harmonic
| x  Mute note
===============================================================================

Suggest correction
Give kudos to tab author, rate the tab!
1 2 3 4 5
comments
print report bad tab
guest
You may want to rate the tab now too:
select rating
Please do not post tabs as comments. Select "correction" instead!