Oops, an error
Loading. Please wait.

Let The Sparks Fly Tab

version 2
version 2

Whole song

Interactive

17,886 views 42 this week
1 commentread comment
1 2 3 4 5
x 26
add to favorites
launch autoscroll
font size
0
reset
how to read this tab
guitar tuner
×
Best way to learn
"Let The Sparks Fly"
Autoscroll
slow
fast
+/-
esc
set tempo
stop
Author
Difficulty
Tuning
  follow
novice
D A D G B E
[Intro]
"Let the sparks fly..."
E|--------------------------------------------------------|
B|--------------------------------------------------------|
G|--------------------------------------------------------|
D|--------------------------------------------------------| 
A|--------------------------------------------------------|
D|-0-6-5-0-3-0--0-6-5-0-3-5--0-6-5-0-3-0--0--3--0-2-3-2---|
   * * * * * *  * * * * * *  * * * * * *  *  *  * * * *
"There's no such thing as maybe..."
E|--------------------------------------------------------|
B|--------------------------------------------------------|
G|--------------------------------------------------------|
D|-0-6-5-0-3-0--0-6-5-0-3-5--0-6-5-0-3-0--0--3--0-2-3-2---| (2x)
A|-0-6-5-0-3-0--0-6-5-0-3-5--0-6-5-0-3-0--0--3--0-2-3-2---|
D|-0-6-5-0-3-0--0-6-5-0-3-5--0-6-5-0-3-0--0--3--0-2-3-2---|

[Verse]
"Give me one if it's real..."
E|---------------------------------------------------|
B|---------------------------------------------------|
G|---------------------------------------------------|
D|---------------------------------------------------| 
A|---------------------------------------------------|
D|-0-6-000-6--0-5-000-5--0-3-000-3--0-2-00-3-2-0-0---|
   * * *** *  * * *** *  * * *** *  * * ** * * * *

E|---------------------------------------------------|
B|---------------------------------------------------|
G|---------------------------------------------------|
D|---------------------------------------------0-0---| 
A|---------------------------------------------0-0---|
D|-0-6-000-6--0-5-000-5--0-3-000-3--0-2-00-3-2-0-0---|
   *   ***    *   ***    *   ***    *   **
E|---------------------------------------------------|
B|---------------------------------------------------|
G|---------------------------------------------------|
D|-0-6-0-0-6--0-5-0-0-5--0-3-0-0-3--0-2-00-3-2-0-0---| (2x)
A|-0-6-0-0-6--0-5-0-0-5--0-3-0-0-3--0-2-00-3-2-0-0---|
D|-0-6-0-0-6--0-5-0-0-5--0-3-0-0-3--0-2-00-3-2-0-0---|
                                        **
[Chorus]
"Let me take you into the light..."
E|-----------------|
B|-----------------|
G|-----------------|
D|-8---0---3---5---| (2x)
A|-8---0---3---5---|
D|-8---0---3---5---|

[Post-Chorus]
"There's no such thing as maybe..."
E|--------------------------------------------------------|
B|--------------------------------------------------------|
G|--------------------------------------------------------|
D|-0-6-5-0-3-0--0-6-5-0-3-5--0-6-5-0-3-0--0--3--0-2-3-2---| (2x)
A|-0-6-5-0-3-0--0-6-5-0-3-5--0-6-5-0-3-0--0--3--0-2-3-2---|
D|-0-6-5-0-3-0--0-6-5-0-3-5--0-6-5-0-3-0--0--3--0-2-3-2---|

[Verse 2]
"Give me one good reason..."
For the first part of the verse, there's no guitar, just play this when it comes up back
in with this.
The second time you play through this, don't play the part in parentheses.

E|-----------------------------------------------------|
B|-----------------------------------------------------|
G|-----------------------------------------------------|
D|-0-6-0-0-6--0-5-0-0-5--0-3-0-0-3--0-2-00-3-2-(0-0)---| (2x)
A|-0-6-0-0-6--0-5-0-0-5--0-3-0-0-3--0-2-00-3-2-(0-0)---|
D|-0-6-0-0-6--0-5-0-0-5--0-3-0-0-3--0-2-00-3-2-(0-0)---|
                                        **
[Chorus]
"Let me take you into the light..."
E|-----------------|
B|-----------------|
G|-10--2---5---7---|
D|-8---0---3---5---| (2x)
A|-8---0---3---5---|
D|-8---0---3---5---|

[Post-Chorus]
"There's no such thing as maybe..."
E|--------------------------------------------------------|
B|--------------------------------------------------------|
G|--------------------------------------------------------|
D|-0-6-5-0-3-0--0-6-5-0-3-5--0-6-5-0-3-0--0--3--0-2-3-2---| (2x)
A|-0-6-5-0-3-0--0-6-5-0-3-5--0-6-5-0-3-0--0--3--0-2-3-2---|
D|-0-6-5-0-3-0--0-6-5-0-3-5--0-6-5-0-3-0--0--3--0-2-3-2---|

[Bridge]
E|---------------------------------------------------|
B|---------------------------------------------------|
G|---------------------------------------------------|
D|---------------------------------------------------| 
A|---------------------------------------------------|
D|-0-6-000-6--0-5-000-5--0-3-000-3--0-2-00-3-2-0-0---|
   * * *** *  * * *** *  * * *** *  * * ** * * * *

E|-------------------------------------------------|
B|-------------------------------------------------|
G|-------------------------------------------------|
D|-------------------------------------------------| 
A|-------------------------------------------------|
D|-0-6-000-6--0-5-000-5--0-3-000-3--0-2-00-3-2-0---|
   *   ***    *   ***    *   ***    *   **

[Chorus]
"Let me take you into the light..."
e|-------------------------------------------------------------------------|
B|-------------------------------------------------------------------------|
G|------0-----0------------------------------------------------------------|
D|----3-----3-----3-----0-----0---------0-----0----------3-----3-----------| 
A|--1-----1-----1-----3-----3-----3---3-----3-----3----5-----5-----5-------|
D|------------------0-----0-----0---3-----3-----3----5-----5-----5---------|

"shake it off and let's take a ride..."
e|--------------------------------------------------------------------------|
B|--------------------------------------------------------------------------|
G|------0-----0-----------------------------------------------0-------------|
D|----3-----3-----3-----0-----0---------0-----0----------3------------------| 
A|--1-----1-----1-----3-----3-----3---3-----3-----3----5--------------------|
D|------------------0-----0-----0---3-----3-----3----5------5---------------|

(Then come in hard with this)
E|-----------------|
B|-----------------|
G|-----------------|
D|-8---0---3---5---| (4x)
A|-8---0---3---5---|
D|-8---0---3---5---|

[Outro]
"There's no such thing as maybe..." (The second time don't play the part in parentheses.)
E|----------------------------------------------------------|
B|----------------------------------------------------------|
G|----------------------------------------------------------|
D|-0-6-5-0-3-0--0-6-5-0-3-5--0-6-5-0-3-0--0--3--(0-2-3-2)---| (2x)
A|-0-6-5-0-3-0--0-6-5-0-3-5--0-6-5-0-3-0--0--3--(0-2-3-2)---|
D|-0-6-5-0-3-0--0-6-5-0-3-5--0-6-5-0-3-0--0--3--(0-2-3-2)---|
Suggest correction
comments
print report bad tab
1 comment total.
0 reply
PizzaSteve3902 208 Apr 20, 2017 11:13 PM

👍

guest
You may want to rate the tab now too:
select rating
Wanna post a correction for this tab? Suggest correction