Oops, an error
Loading. Please wait.

Lift It Bass Tab

844 views 1 this week
no commentswrite comment
1 2 3 4 5
please rate
add to favorites
launch autoscroll
font size
0
reset
guitar tuner
Autoscroll
slow
fast
+/-
esc
set tempo
stop
Help us to improve Ultimate-Guitar.com Take our survey!
×
Band- Thousand Foot Krutch
Song- Lift It

Tuning: EADG


Verse:
[---------------------------------------------------------------------------------]
[---------------------------------------------------------------------------------]
[---0--2--3-----0--3--5-----0--5--7------7--7-------------------------------------]
[----------------------------------------0-----------0----------------------------]


Pre Chorus: (way #1)
[---------------------------------------------------------------------------------]
[---------------------------------------------------------------------------------]
[---3--3--3----------------7--7--7------------------------------------------------]
[--------------2---2---2----------------------------------------------------------]


Pre Chorus (way #2)
*it's the same as above, but change the E on the seventh fret to an open E on the top string.


Chorus:

[---------------------------------------------------------------------------------]
[---------------------------------------------------------------------------------]
[---3--3--3----5--5--5------------------------------------------------------------]
[--------------------------3--3--3-----0--0--0------------------------------------]
Suggest correction
Give kudos to tab author, rate the tab!
1 2 3 4 5
comments
print report bad tab
guest
You may want to rate the tab now too:
select rating
Wanna post a correction for this tab? Suggest correction