Oops, an error
Loading. Please wait.

Light Up The Sky Tab

version 2
version 2

Whole song

2,911 views 1 this week
no commentswrite comment
1 2 3 4 5
x 3
add to favorites
launch autoscroll
font size
0
reset
how to read this tab
guitar tuner
Autoscroll
slow
fast
+/-
esc
set tempo
stop
Help us to improve Ultimate-Guitar.com Take our survey!
×
Author
Difficulty
Tuning
novice
D A D G B E
Intro
-----------------------------------------------|
-----------------------------------------------|
-----------------------------------------------|
-----------------------------------------------|
-----------------------------------------------|
--2h44--2h44--4-4--2h44--2h44--2h44--422--7/9--|
                .

Intro (Con...)
-----------------------------------------------|
-----------------------------------------------|
-----------------------------------------------|
-----------------------------------------------|
-----------------------------------------------|
--2h44--2h44--4-4--2h44--2h44--2h44--4-4--9\7--|
                .                      .

Chorus
------------------------------------------------|
------------------------------------------------|
------------------------------------------------|
--2h44--2h444--4-4--2h44--2h44--2h44--2-4--7/9--|
--2h44--2h444--4-4--2h44--2h44--2h44--2-4--7/9--|
--2h44--2h444--4-4--2h44--2h44--2h44--2-4--7/9--|

Chorus (Con...)
-------------------------------------------------|
-------------------------------------------------|
-------------------------------------------------|
--2h44--2h444--4-4--2h44--2h44--2h44--4-22--9\7--|
--2h44--2h444--4-4--2h44--2h44--2h44--4-22--9\7--|
--2h44--2h444--4-4--2h44--2h44--2h44--4-22--9\7--|

Verse 1 [Come in for second half of verse] there is 
various scratching pm's throughout
----------------------------------------------------|
----------------------------------------------------|
------------------------------------6-4-2-----------|
--2-4-7-4-2-4--2-4-7-2-2-2-2--2-4-7-------2--2-4-7--|
------------------------------------4-2-0-----------|
--2-4-7-4-2-4--2-4-7-2-2-2-2--2-4-7-------2--2-4-7--|
                     . . . .

Pre-Chorus The main part of the P-C is starching pm's (except the end)
While that is happening you could do what is in parenthesis. 
---------------------------------------------------------------------|
---------------------------------------------------------------------|
---------------------------------------------------------------------|
-xxx--------(4-3-2)-----------xxxxx----------------------------------|
-xxx-[x60]--(4-3-2)--0-0-0-2--xxxxx----------------------------------|
-xxx--------(4-3-2)-----------xxxxx----------------------------------|
          {x20 4 each}

Go back to:
Chorus
Verse 2
Pre-Chorus

Bridge
--------------------------------------------------------------------|
--------------------------------------------------------------------|
--------------------------------------------------------------------| (x2)
--------------------------------------------------------------------|
----------------0-2---------------0----------------0-2--------------|
--2h44--2h4-2h4-----2h44--2h4-2h4----2h44--2h4-2h4-----0-2-0-2-0-7--|

Bridge (Con...)
----------------------------------------------------------------------|
----------------------------------------------------------------------|
----------------------------------------------------------------------|
--2-4-4-2-4-2-4-7-9--2-4-4-2-4-2-4-7--2-4-4-2-4-2-4-7-9--7-9-7-9-7-9--|
--2-4-4-2-4-2-4-7-9--2-4-4-2-4-2-4-7--2-4-4-2-4-2-4-7-9--7-9-7-9-7-9--|
--2-4-4-2-4-2-4-7-9--2-4-4-2-4-2-4-7--2-4-4-2-4-2-4-7-9--7-9-7-9-7-9--|

Post-Bridge [Minor variations in 
beginning then the last part is...]
----------------------|
----------------------|
----------------------|
----------------xxxx--|
----------------xxxx--|
--0-2-2-2-2-2\--xxxx--|

Back to Chorus

Ending
--------------------------------------------------------|
--------------------------------------------------------|
--------------------------------------------------------|
--7-4-2-2-0-9--7-4-2-2-0-9-9-9--7-4-2-2-0-9--9-0-2-4-0--|
--7-4-2-2-0-9--7-4-2-2-0-9-9-9--7-4-2-2-0-9--9-0-2-4-0--|
--7-4-2-2-0-9--7-4-2-2-0-9-9-9--7-4-2-2-0-9--9-0-2-4-0--|
                           . .
Suggest correction
Give kudos to tab author, rate the tab!
1 2 3 4 5
comments
print report bad tab
guest
You may want to rate the tab now too:
select rating
Wanna post a correction for this tab? Suggest correction